  0
SECTION
  2
HEADER
  9
$ACADVER
  1
AC1015
  9
$ACADMAINTVER
 70
     6
  9
$DWGCODEPAGE
  3
DOS850
  9
$INSBASE
 10
0.0
 20
0.0
 30
0.0
  9
$EXTMIN
 10
-78.052
 20
-55.2979
 30
1.000000E+20
  9
$EXTMAX
 10
78.052
 20
55.2979
 30
-1.000000E+20
  9
$LIMMIN
 10
0.0
 20
0.0
  9
$LIMMAX
 10
0.0
 20
0.0
  9
$ORTHOMODE
 70
     0
  9
$REGENMODE
 70
     1
  9
$FILLMODE
 70
     1
  9
$QTEXTMODE
 70
     0
  9
$MIRRTEXT
 70
     1
  9
$LTSCALE
 40
1.0
  9
$ATTMODE
 70
     1
  9
$TEXTSIZE
 40
0.2
  9
$TRACEWID
 40
0.05
  9
$TEXTSTYLE
  7
Standard
  9
$CLAYER
  8
0
  9
$CELTYPE
  6
Continuous
  9
$CECOLOR
 62
   256
  9
$CELTSCALE
 40
1.0
  9
$DISPSILH
 70
     0
  9
$DIMSCALE
 40
1.0
  9
$DIMASZ
 40
0.18
  9
$DIMEXO
 40
0.0625
  9
$DIMDLI
 40
0.38
  9
$DIMRND
 40
0.0
  9
$DIMDLE
 40
0.0
  9
$DIMEXE
 40
0.18
  9
$DIMTP
 40
0.0
  9
$DIMTM
 40
0.0
  9
$DIMTXT
 40
0.18
  9
$DIMCEN
 40
0.09
  9
$DIMTSZ
 40
0.0
  9
$DIMTOL
 70
     0
  9
$DIMLIM
 70
     0
  9
$DIMTIH
 70
     1
  9
$DIMTOH
 70
     1
  9
$DIMSE1
 70
     0
  9
$DIMSE2
 70
     0
  9
$DIMTAD
 70
     0
  9
$DIMZIN
 70
     0
  9
$DIMBLK
  1

  9
$DIMASO
 70
     1
  9
$DIMSHO
 70
     1
  9
$DIMPOST
  1

  9
$DIMAPOST
  1

  9
$DIMALT
 70
     0
  9
$DIMALTD
 70
     2
  9
$DIMALTF
 40
25.4
  9
$DIMLFAC
 40
1.0
  9
$DIMTOFL
 70
     0
  9
$DIMTVP
 40
0.0
  9
$DIMTIX
 70
     0
  9
$DIMSOXD
 70
     0
  9
$DIMSAH
 70
     0
  9
$DIMBLK1
  1

  9
$DIMBLK2
  1

  9
$DIMSTYLE
  2
Standard
  9
$DIMCLRD
 70
     0
  9
$DIMCLRE
 70
     0
  9
$DIMCLRT
 70
     0
  9
$DIMTFAC
 40
1.0
  9
$DIMGAP
 40
0.09
  9
$DIMJUST
 70
     0
  9
$DIMSD1
 70
     0
  9
$DIMSD2
 70
     0
  9
$DIMTOLJ
 70
     1
  9
$DIMTZIN
 70
     0
  9
$DIMALTZ
 70
     0
  9
$DIMALTTZ
 70
     0
  9
$DIMUPT
 70
     0
  9
$DIMDEC
 70
     4
  9
$DIMTDEC
 70
     4
  9
$DIMALTU
 70
     2
  9
$DIMALTTD
 70
     2
  9
$DIMTXSTY
  7
Standard
  9
$DIMAUNIT
 70
     0
  9
$DIMADEC
 70
     0
  9
$DIMALTRND
 40
0.0
  9
$DIMAZIN
 70
     0
  9
$DIMDSEP
 70
     0
  9
$DIMATFIT
 70
     3
  9
$DIMFRAC
 70
     0
  9
$DIMLDRBLK
  1

  9
$DIMLUNIT
 70
     2
  9
$DIMLWD
 70
     0
  9
$DIMLWE
 70
     0
  9
$DIMTMOVE
 70
     0
  9
$LUNITS
 70
     2
  9
$LUPREC
 70
     4
  9
$SKETCHINC
 40
0.1
  9
$FILLETRAD
 40
0.0
  9
$AUNITS
 70
     0
  9
$AUPREC
 70
     0
  9
$MENU
  1
acad
  9
$ELEVATION
 40
0.0
  9
$PELEVATION
 40
0.0
  9
$THICKNESS
 40
0.0
  9
$LIMCHECK
 70
     0
  9
$CHAMFERA
 40
0.0
  9
$CHAMFERB
 40
0.0
  9
$CHAMFERC
 40
0.0
  9
$CHAMFERD
 40
0.0
  9
$SKPOLY
 70
     0
  9
$TDCREATE
 40
0.000000000
  9
$TDUCREATE
 40
0.000000000
  9
$TDUPDATE
 40
0.000000000
  9
$TDUUPDATE
 40
0.000000000
  9
$TDINDWG
 40
0.0000000000
  9
$TDUSRTIMER
 40
0.0000000000
  9
$USRTIMER
 70
     1
  9
$ANGBASE
 50
0.0
  9
$ANGDIR
 70
     0
  9
$PDMODE
 70
     0
  9
$PDSIZE
 40
0.0
  9
$PLINEWID
 40
0.0
  9
$SPLFRAME
 70
     0
  9
$SPLINETYPE
 70
     6
  9
$SPLINESEGS
 70
     8
  9
$HANDSEED
  5
80
  9
$SURFTAB1
 70
     6
  9
$SURFTAB2
 70
     6
  9
$SURFTYPE
 70
     6
  9
$SURFU
 70
     6
  9
$SURFV
 70
     6
  9
$UCSBASE
  2

  9
$UCSNAME
  2

  9
$UCSORG
 10
0.0
 20
0.0
 30
0.0
  9
$UCSXDIR
 10
1.0
 20
0.0
 30
0.0
  9
$UCSYDIR
 10
0.0
 20
1.0
 30
0.0
  9
$UCSORTHOREF
  2

  9
$UCSORTHOVIEW
 70
     0
  9
$UCSORGTOP
 10
0.0
 20
0.0
 30
0.0
  9
$UCSORGBOTTOM
 10
0.0
 20
0.0
 30
0.0
  9
$UCSORGLEFT
 10
0.0
 20
0.0
 30
0.0
  9
$UCSORGRIGHT
 10
0.0
 20
0.0
 30
0.0
  9
$UCSORGFRONT
 10
0.0
 20
0.0
 30
0.0
  9
$UCSORGBACK
 10
0.0
 20
0.0
 30
0.0
  9
$PUCSBASE
  2

  9
$PUCSNAME
  2

  9
$PUCSORG
 10
0.0
 20
0.0
 30
0.0
  9
$PUCSXDIR
 10
1.0
 20
0.0
 30
0.0
  9
$PUCSYDIR
 10
0.0
 20
1.0
 30
0.0
  9
$PUCSORTHOREF
  2

  9
$PUCSORTHOVIEW
 70
     0
  9
$PUCSORGTOP
 10
0.0
 20
0.0
 30
0.0
  9
$PUCSORGBOTTOM
 10
0.0
 20
0.0
 30
0.0
  9
$PUCSORGLEFT
 10
0.0
 20
0.0
 30
0.0
  9
$PUCSORGRIGHT
 10
0.0
 20
0.0
 30
0.0
  9
$PUCSORGFRONT
 10
0.0
 20
0.0
 30
0.0
  9
$PUCSORGBACK
 10
0.0
 20
0.0
 30
0.0
  9
$USERI1
 70
     0
  9
$USERI2
 70
     0
  9
$USERI3
 70
     0
  9
$USERI4
 70
     0
  9
$USERI5
 70
     0
  9
$USERR1
 40
0.0
  9
$USERR2
 40
0.0
  9
$USERR3
 40
0.0
  9
$USERR4
 40
0.0
  9
$USERR5
 40
0.0
  9
$WORLDVIEW
 70
     1
  9
$SHADEDGE
 70
     3
  9
$SHADEDIF
 70
    70
  9
$TILEMODE
 70
     1
  9
$MAXACTVP
 70
    16
  9
$PINSBASE
 10
0.0
 20
0.0
 30
0.0
  9
$PLIMCHECK
 70
     0
  9
$PEXTMIN
 10
1.000000E+20
 20
1.000000E+20
 30
1.000000E+20
  9
$PEXTMAX
 10
-1.000000E+20
 20
-1.000000E+20
 30
-1.000000E+20
  9
$PLIMMIN
 10
0.0
 20
0.0
  9
$PLIMMAX
 10
12.0
 20
9.0
  9
$UNITMODE
 70
     0
  9
$VISRETAIN
 70
     0
  9
$PLINEGEN
 70
     1
  9
$PSLTSCALE
 70
     0
  9
$TREEDEPTH
 70
  3020
  9
$CMLSTYLE
  2
Standard
  9
$CMLJUST
 70
     0
  9
$CMLSCALE
 40
1.0
  9
$PROXYGRAPHICS
 70
     0
  9
$MEASUREMENT
 70
     0
  9
$CELWEIGHT
370
     0
  9
$ENDCAPS
280
     0
  9
$JOINSTYLE
280
     0
  9
$LWDISPLAY
290
     0
  9
$INSUNITS
 70
     4
  9
$HYPERLINKBASE
  1

  9
$XEDIT
290
     1
  9
$CEPSNTYPE
380
     0
  9
$PSTYLEMODE
290
     1
  9
$FINGERPRINTGUID
  2

  9
$VERSIONGUID
  2

  9
$EXTNAMES
290
     1
  9
$PSVPSCALE
 40
0.0
  0
ENDSEC
  0
SECTION
  2
CLASSES
  0
CLASS
  1
LWPOLYLINE
  2
AcDbPolyline
  3
AutoCAD 2000
 90
    32768
280
     0
281
     1
  0
CLASS
  1
IMAGE
  2
AcDbRasterImage
  3
ISM
 90
      127
280
     0
281
     1
  0
CLASS
  1
OLE2FRAME
  2
AcDbOle2Frame
  3
AutoCAD 2000
 90
    32768
280
     0
281
     1
  0
CLASS
  1
HATCH
  2
AcDbHatch
  3
AutoCAD 2000
 90
    32768
280
     0
281
     1
  0
CLASS
  1
DICTIONARYVAR
  2
AcDbDictionaryVar
  3
AutoCAD 2000
 90
    32768
280
     0
281
     0
  0
CLASS
  1
RASTERVARIABLES
  2
AcDbRasterVariables
  3
ISM
 90
        0
280
     0
281
     0
  0
CLASS
  1
IMAGEDEF
  2
AcDbRasterImageDef
  3
ISM
 90
        0
280
     0
281
     0
  0
CLASS
  1
IMAGEDEF_REACTOR
  2
AcDbRasterImageDefReactor
  3
ISM
 90
        1
280
     0
281
     0
  0
CLASS
  1
IDBUFFER
  2
AcDbIdBuffer
  3
AutoCAD 2000
 90
    32768
280
     0
281
     0
  0
CLASS
  1
SPATIAL_FILTER
  2
AcDbSpatialFilter
  3
AutoCAD 2000
 90
    32768
280
     0
281
     0
  0
CLASS
  1
XRECORD
  2
AcDbXrecord
  3
AutoCAD 2000
 90
    32768
280
     0
281
     0
  0
CLASS
  1
SORTENTSTABLE
  2
AcDbSortentsTable
  3
AutoCAD 2000
 90
    32768
280
     0
281
     0
  0
CLASS
  1
LAYER_INDEX
  2
AcDbLayerIndex
  3
AutoCAD 2000
 90
    32768
280
     0
281
     0
  0
CLASS
  1
SPATIAL_INDEX
  2
AcDbSpatialIndex
  3
AutoCAD 2000
 90
    32768
280
     0
281
     0
  0
CLASS
  1
OBJECT_PTR
  2
CAseDLPNTableRecord
  3
"ASE-LPNTableRecord"
 90
    32769
280
     0
281
     0
  0
CLASS
  1
LAYOUT
  2
AcDbLayout
  3
AutoCAD 2000
 90
        0
280
     0
281
     0
  0
CLASS
  1
PLOTSETTINGS
  2
AcDbPlotSettings
  3
AutoCAD 2000
 90
    32768
280
     0
281
     0
  0
CLASS
  1
ACDBDICTIONARYWDFLT
  2
AcDbDictionaryWithDefault
  3
AutoCAD 2000
 90
        0
280
     0
281
     0
  0
CLASS
  1
ACDBPLACEHOLDER
  2
AcDbPlaceHolder
  3
AutoCAD 2000
 90
        0
280
     0
281
     0
  0
CLASS
  1
VBA_PROJECT
  2
AcDbVbaProject
  3
acadvba
 90
    32768
280
     0
281
     0
  0
CLASS
  1
WIPEOUT
  2
AcDbWipeout
  3
WipeOut|AutoCAD Express Tool|expresstools@autodesk.com
 90
    32895
280
     0
281
     1
  0
CLASS
  1
WIPEOUTVARIABLES
  2
AcDbWipeoutVariables
  3
WipeOut|AutoCAD Express Tool|expresstools@autodesk.com
 90
        0
280
     0
281
     0
  0
CLASS
  1
RTEXT
  2
RText
  3
RText|AutoCAD Express Tool|expresstools@autodesk.com
 90
    32768
280
     0
281
     1
  0
CLASS
  1
ARCALIGNEDTEXT
  2
AcDbArcAlignedText
  3
ATEXT|AutoCAD Express Tool|expresstools@autodesk.com
 90
    32768
280
     0
281
     1
  0
ENDSEC
  0
SECTION
  2
TABLES
  0
TABLE
  2
VPORT
  5
7
100
AcDbSymbolTable
 70
     1
  0
VPORT
  5
15
100
AcDbSymbolTableRecord
100
AcDbViewportTableRecord
  2
*ACTIVE
 70
     0
 10
0.0
 20
0.0
 11
1.0
 21
1.0
 12
6.591288
 22
4.579184
 13
0.0
 23
0.0
 14
1.0
 24
1.0
 15
0.0
 25
0.0
 16
0.0
 26
0.0
 36
1.0
 17
0.0
 27
0.0
 37
0.0
 40
9.158369
 41
0.688564
 42
50.0
 43
0.0
 44
0.0
 50
0.0
 51
0.0
 71
     0
 72
   100
 73
     1
 74
     1
 75
     0
 76
     0
 77
     0
 78
     0
281
     0
 65
     0
110
0.0
120
0.0
130
0.0
111
1.0
121
0.0
131
0.0
112
0.0
122
1.0
132
0.0
345
0
346
0
 79
     0
146
0.0
  0
ENDTAB
  0
TABLE
  2
LTYPE
  5
4
100
AcDbSymbolTable
 70
     3
  0
LTYPE
  5
11
100
AcDbSymbolTableRecord
100
AcDbLinetypeTableRecord
  2
ByBlock
 70
    64
  3

 72
    65
 73
     0
 40
0.0
  0
LTYPE
  5
12
100
AcDbSymbolTableRecord
100
AcDbLinetypeTableRecord
  2
ByLayer
 70
    64
  3

 72
    65
 73
     0
 40
0.0
  0
LTYPE
  5
13
100
AcDbSymbolTableRecord
100
AcDbLinetypeTableRecord
  2
Continuous
 70
    64
  3
Solid line
 72
    65
 73
     0
 40
0.0
  0
ENDTAB
  0
TABLE
  2
LAYER
  5
2
100
AcDbSymbolTable
 70
     2
  0
LAYER
  5
14
100
AcDbSymbolTableRecord
100
AcDbLayerTableRecord
  2
0
 70
     0
 62
     7
  6
Continuous
290
     1
370
    -3
390
1D
  0
LAYER
  5
24
100
AcDbSymbolTableRecord
100
AcDbLayerTableRecord
  2
Layer 1
 70
     0
 62
     7
  6
Continuous
290
     1
370
    -3
390
1F
  0
ENDTAB
  0
TABLE
  2
STYLE
  5
3
100
AcDbSymbolTable
 70
     1
  0
STYLE
  5
17
100
AcDbSymbolTableRecord
100
AcDbTextStyleTableRecord
  2
Standard
 70
     0
 40
0.0
 41
1.0
 50
0.0
 71
     0
 42
0.0
  3
txt
  4

  0
ENDTAB
  0
TABLE
  2
VIEW
  5
5
100
AcDbSymbolTable
 70
     0
  0
ENDTAB
  0
TABLE
  2
UCS
  5
6
100
AcDbSymbolTable
 70
     0
  0
ENDTAB
  0
TABLE
  2
APPID
  5
8
100
AcDbSymbolTable
 70
     1
  0
APPID
  5
16
100
AcDbSymbolTableRecord
100
AcDbRegAppTableRecord
  2
ACAD
 70
     0
  0
ENDTAB
  0
TABLE
  2
DIMSTYLE
  5
9
100
AcDbSymbolTable
 70
     1
100
AcDbDimStyleTable
 71
     0
  0
DIMSTYLE
105
18
100
AcDbSymbolTableRecord
100
AcDbDimStyleTableRecord
  2
Standard
 70
     0
  3

  4

 40
1.0
 41
0.18
 42
0.0625
 43
0.38
 44
0.18
 45
0.0
 46
0.0
 47
0.0
 48
0.0
 71
     0
 72
     0
 73
     1
 74
     1
 75
     0
 76
     0
 77
     0
 78
     0
 79
     0
140
0.18
141
0.09
142
0.0
143
25.4
144
1.0
145
0.0
146
1.0
147
0.09
148
0.0
170
     0
171
     2
172
     0
173
     0
174
     0
175
     0
176
     0
177
     0
178
     0
179
     0
271
     4
272
     4
273
     2
274
     2
275
     0
276
     0
277
     2
278
    46
279
     0
280
     0
281
     0
282
     0
283
     1
284
     0
285
     0
286
     0
288
     0
340
17
341
0
342
0
343
0
344
0
371
    -2
372
    -2
  0
ENDTAB
  0
TABLE
  2
BLOCK_RECORD
  5
1
100
AcDbSymbolTable
 70
     0
  0
BLOCK_RECORD
  5
A
100
AcDbSymbolTableRecord
100
AcDbBlockTableRecord
  2
*MODEL_SPACE
340
20
  0
BLOCK_RECORD
  5
B
100
AcDbSymbolTableRecord
100
AcDbBlockTableRecord
  2
*PAPER_SPACE
340
21
  0
ENDTAB
  0
ENDSEC
  0
SECTION
  2
BLOCKS
  0
BLOCK
  5
D
100
AcDbEntity
  8
0
100
AcDbBlockBegin
  2
*MODEL_SPACE
 70
     0
 10
0.0
 20
0.0
 30
0.0
  3
*MODEL_SPACE
  1

  0
ENDBLK
  5
E
100
AcDbEntity
  8
0
100
AcDbBlockEnd
  0
BLOCK
  5
F
100
AcDbEntity
 67
     1
  8
0
100
AcDbBlockBegin
  2
*PAPER_SPACE
 70
     0
 10
0.0
 20
0.0
 30
0.0
  3
*PAPER_SPACE
  1

  0
ENDBLK
  5
10
100
AcDbEntity
 67
     1
  8
0
100
AcDbBlockEnd
  0
ENDSEC
  0
SECTION
  2
ENTITIES
  0
IMAGE
  5
25
100
AcDbEntity
  8
Layer 1
 62
     0
 92
      140
310
000000000000000084000000060000000500000017D9CEF7538353C03CBD529621A64BC0000000000000000017D9CEF7538353C03CBD529621A64B40000000000000000017D9CEF7538353403CBD529621A64B40000000000000000017D9CEF7538353403CBD529621A64BC0000000000000000017D9CEF7538353C03CBD52
310
9621A64BC00000000000000000
100
AcDbRasterImage
 90
        0
 10
-78.052
 20
-55.2979
 30
0.0
 11
0.264583
 21
0.0
 31
0.0
 12
0.0
 22
0.264583
 32
0.0
 13
590.0
 23
418.0
340
29
 70
     7
280
     0
281
    50
282
    50
283
     0
360
28
 71
     1
 91
        2
 14
-78.052
 24
-55.2979
 14
78.052
 24
55.2979
  0
SPLINE
  5
2A
100
AcDbEntity
  8
Layer 1
 62
     1
100
AcDbSpline
210
0.0
220
0.0
230
1.0
 70
     0
 71
     3
 72
    36
 73
    32
 74
     0
 42
0.0000000001
 43
0.0000000001
 40
0.0
 40
0.0
 40
0.0
 40
0.0
 40
0.125
 40
0.125
 40
0.125
 40
0.125
 40
0.25
 40
0.25
 40
0.25
 40
0.25
 40
0.375
 40
0.375
 40
0.375
 40
0.375
 40
0.5
 40
0.5
 40
0.5
 40
0.5
 40
0.625
 40
0.625
 40
0.625
 40
0.625
 40
0.75
 40
0.75
 40
0.75
 40
0.75
 40
0.875
 40
0.875
 40
0.875
 40
0.875
 40
1.0
 40
1.0
 40
1.0
 40
1.0
 10
-1.8304
 20
-14.220800000000001
 30
0.0
 10
0.5213
 20
-13.7027
 30
0.0
 10
2.9723999999999999
 20
-13.5185
 30
0.0
 10
5.2245999999999997
 20
-12.666499999999999
 30
0.0
 10
5.2245999999999997
 20
-12.666499999999999
 30
0.0
 10
6.5106999999999999
 20
-12.1799
 30
0.0
 10
7.7999000000000001
 20
-11.4048
 30
0.0
 10
8.5888000000000009
 20
-10.2784
 30
0.0
 10
8.5888000000000009
 20
-10.2784
 30
0.0
 10
9.4321000000000002
 20
-9.0744000000000007
 30
0.0
 10
10.6821
 20
-7.6086
 30
0.0
 10
10.2784
 20
-6.1951999999999998
 30
0.0
 10
10.2784
 20
-6.1951999999999998
 30
0.0
 10
9.7286999999999999
 20
-4.2712000000000003
 30
0.0
 10
7.2599
 20
-3.3902999999999999
 30
0.0
 10
6.4767999999999999
 20
-1.5488
 30
0.0
 10
6.4767999999999999
 20
-1.5488
 30
0.0
 10
5.4680999999999997
 20
0.8229
 30
0.0
 10
5.5381
 20
3.52
 30
0.0
 10
5.0688000000000004
 20
6.0544000000000002
 30
0.0
 10
5.0688000000000004
 20
6.0544000000000002
 30
0.0
 10
3.4260999999999999
 20
7.0869
 30
0.0
 10
1.8735999999999999
 20
8.5075000000000003
 30
0.0
 10
0.0
 20
9.0112000000000005
 30
0.0
 10
0.0
 20
9.0112000000000005
 30
0.0
 10
-2.6322000000000001
 20
9.7187999999999999
 30
0.0
 10
-6.5941000000000001
 20
10.4116
 30
0.0
 10
-9.0112000000000005
 20
9.1519999999999992
 30
0.0
 10
-9.0112000000000005
 20
9.1519999999999992
 30
0.0
 10
-9.0112000000000005
 20
9.1519999999999992
 30
0.0
 10
-19.007999999999999
 20
3.9424000000000001
 30
0.0
 10
-19.007999999999999
 20
3.9424000000000001
 30
0.0
  0
SPLINE
  5
2B
100
AcDbEntity
  8
Layer 1
 62
    30
100
AcDbSpline
210
0.0
220
0.0
230
1.0
 70
     0
 71
     3
 72
    44
 73
    40
 74
     0
 42
0.0000000001
 43
0.0000000001
 40
0.0
 40
0.0
 40
0.0
 40
0.0
 40
0.1
 40
0.1
 40
0.1
 40
0.1
 40
0.2
 40
0.2
 40
0.2
 40
0.2
 40
0.3
 40
0.3
 40
0.3
 40
0.3
 40
0.4
 40
0.4
 40
0.4
 40
0.4
 40
0.5
 40
0.5
 40
0.5
 40
0.5
 40
0.6
 40
0.6
 40
0.6
 40
0.6
 40
0.7
 40
0.7
 40
0.7
 40
0.7
 40
0.7999999999999999
 40
0.7999999999999999
 40
0.7999999999999999
 40
0.7999999999999999
 40
0.8999999999999999
 40
0.8999999999999999
 40
0.8999999999999999
 40
0.8999999999999999
 40
1.0
 40
1.0
 40
1.0
 40
1.0
 10
0.0056
 20
-16.8904
 30
0.0
 10
2.4281000000000001
 20
-15.892300000000001
 30
0.0
 10
5.0217000000000001
 20
-15.236000000000001
 30
0.0
 10
7.2731000000000003
 20
-13.896100000000001
 30
0.0
 10
7.2731000000000003
 20
-13.896100000000001
 30
0.0
 10
8.5106000000000002
 20
-13.159599999999999
 30
0.0
 10
9.4291
 20
-11.9526
 30
0.0
 10
10.2684
 20
-10.782400000000001
 30
0.0
 10
10.2684
 20
-10.782400000000001
 30
0.0
 10
11.153499999999999
 20
-9.5480999999999998
 30
0.0
 10
11.6868
 20
-8.0960000000000001
 30
0.0
 10
12.396000000000001
 20
-6.7527999999999997
 30
0.0
 10
12.396000000000001
 20
-6.7527999999999997
 30
0.0
 10
12.4429
 20
-5.7671999999999999
 30
0.0
 10
12.897500000000001
 20
-4.7142999999999997
 30
0.0
 10
12.536799999999999
 20
-3.7959999999999998
 30
0.0
 10
12.536799999999999
 20
-3.7959999999999998
 30
0.0
 10
11.818099999999999
 20
-1.9665999999999999
 30
0.0
 10
10.0861
 20
-0.6688
 30
0.0
 10
9.2984000000000009
 20
1.1319999999999999
 30
0.0
 10
9.2984000000000009
 20
1.1319999999999999
 30
0.0
 10
8.4223999999999997
 20
3.1343999999999999
 30
0.0
 10
8.9480000000000004
 20
5.7407000000000004
 30
0.0
 10
7.6087999999999996
 20
7.468
 30
0.0
 10
7.6087999999999996
 20
7.468
 30
0.0
 10
5.5382999999999996
 20
10.1388
 30
0.0
 10
2.7583000000000002
 20
12.5062
 30
0.0
 10
-0.4168
 20
13.6632
 30
0.0
 10
-0.4168
 20
13.6632
 30
0.0
 10
-3.1070000000000002
 20
14.6434
 30
0.0
 10
-6.2225999999999999
 20
14.195600000000001
 30
0.0
 10
-9.0055999999999994
 20
13.522399999999999
 30
0.0
 10
-9.0055999999999994
 20
13.522399999999999
 30
0.0
 10
-12.1692
 20
12.757
 30
0.0
 10
-14.9192
 20
10.8002
 30
0.0
 10
-17.876000000000001
 20
9.4391999999999996
 30
0.0
 10
-17.876000000000001
 20
9.4391999999999996
 30
0.0
 10
-17.876000000000001
 20
9.4391999999999996
 30
0.0
 10
-24.921600000000002
 20
5.0688000000000004
 30
0.0
 10
-24.921600000000002
 20
5.0688000000000004
 30
0.0
  0
SPLINE
  5
2C
100
AcDbEntity
  8
Layer 1
 62
    40
100
AcDbSpline
210
0.0
220
0.0
230
1.0
 70
     0
 71
     3
 72
    44
 73
    40
 74
     0
 42
0.0000000001
 43
0.0000000001
 40
0.0
 40
0.0
 40
0.0
 40
0.0
 40
0.1
 40
0.1
 40
0.1
 40
0.1
 40
0.2
 40
0.2
 40
0.2
 40
0.2
 40
0.3
 40
0.3
 40
0.3
 40
0.3
 40
0.4
 40
0.4
 40
0.4
 40
0.4
 40
0.5
 40
0.5
 40
0.5
 40
0.5
 40
0.6
 40
0.6
 40
0.6
 40
0.6
 40
0.7
 40
0.7
 40
0.7
 40
0.7
 40
0.7999999999999999
 40
0.7999999999999999
 40
0.7999999999999999
 40
0.7999999999999999
 40
0.8999999999999999
 40
0.8999999999999999
 40
0.8999999999999999
 40
0.8999999999999999
 40
1.0
 40
1.0
 40
1.0
 40
1.0
 10
1.5600000000000001
 20
-18.0168
 30
0.0
 10
3.6059000000000001
 20
-17.209099999999999
 30
0.0
 10
5.8094000000000001
 20
-16.721399999999999
 30
0.0
 10
7.6976000000000004
 20
-15.5938
 30
0.0
 10
7.6976000000000004
 20
-15.5938
 30
0.0
 10
9.2434999999999992
 20
-14.6706
 30
0.0
 10
10.9468
 20
-13.693099999999999
 30
0.0
 10
11.9016
 20
-12.166399999999999
 30
0.0
 10
11.9016
 20
-12.166399999999999
 30
0.0
 10
13.463699999999999
 20
-9.6690000000000005
 30
0.0
 10
15.4252
 20
-6.7744
 30
0.0
 10
15.518800000000001
 20
-3.8300000000000001
 30
0.0
 10
15.518800000000001
 20
-3.8300000000000001
 30
0.0
 10
15.581
 20
-1.8753
 30
0.0
 10
13.250400000000001
 20
-0.3801
 30
0.0
 10
12.460000000000001
 20
1.4088000000000001
 30
0.0
 10
12.460000000000001
 20
1.4088000000000001
 30
0.0
 10
11.458500000000001
 20
3.6757
 30
0.0
 10
10.9322
 20
6.3400999999999996
 30
0.0
 10
10.134399999999999
 20
8.6867999999999999
 30
0.0
 10
10.134399999999999
 20
8.6867999999999999
 30
0.0
 10
8.4754000000000005
 20
10.541499999999999
 30
0.0
 10
6.6780999999999997
 20
12.3048
 30
0.0
 10
4.7496
 20
13.876899999999999
 30
0.0
 10
4.7496
 20
13.876899999999999
 30
0.0
 10
2.3182
 20
15.8591
 30
0.0
 10
-0.2253
 20
18.5244
 30
0.0
 10
-3.2271999999999998
 20
19.436
 30
0.0
 10
-3.2271999999999998
 20
19.436
 30
0.0
 10
-5.3452999999999999
 20
20.0792
 30
0.0
 10
-7.9253
 20
19.412199999999999
 30
0.0
 10
-9.8447999999999993
 20
18.3096
 30
0.0
 10
-9.8447999999999993
 20
18.3096
 30
0.0
 10
-9.8447999999999993
 20
18.3096
 30
0.0
 10
-16.462399999999999
 20
14.507999999999999
 30
0.0
 10
-16.462399999999999
 20
14.507999999999999
 30
0.0
 10
-16.462399999999999
 20
14.507999999999999
 30
0.0
 10
-16.462399999999999
 20
14.507999999999999
 30
0.0
 10
-27.7376
 20
6.6176000000000004
 30
0.0
 10
-27.7376
 20
6.6176000000000004
 30
0.0
  0
SPLINE
  5
2D
100
AcDbEntity
  8
Layer 1
 62
    70
100
AcDbSpline
210
0.0
220
0.0
230
1.0
 70
     0
 71
     3
 72
    56
 73
    52
 74
     0
 42
0.0000000001
 43
0.0000000001
 40
0.0
 40
0.0
 40
0.0
 40
0.0
 40
0.0769230769230769
 40
0.0769230769230769
 40
0.0769230769230769
 40
0.0769230769230769
 40
0.1538461538461539
 40
0.1538461538461539
 40
0.1538461538461539
 40
0.1538461538461539
 40
0.2307692307692308
 40
0.2307692307692308
 40
0.2307692307692308
 40
0.2307692307692308
 40
0.3076923076923077
 40
0.3076923076923077
 40
0.3076923076923077
 40
0.3076923076923077
 40
0.3846153846153846
 40
0.3846153846153846
 40
0.3846153846153846
 40
0.3846153846153846
 40
0.4615384615384616
 40
0.4615384615384616
 40
0.4615384615384616
 40
0.4615384615384616
 40
0.5384615384615386
 40
0.5384615384615386
 40
0.5384615384615386
 40
0.5384615384615386
 40
0.6153846153846154
 40
0.6153846153846154
 40
0.6153846153846154
 40
0.6153846153846154
 40
0.6923076923076923
 40
0.6923076923076923
 40
0.6923076923076923
 40
0.6923076923076923
 40
0.7692307692307692
 40
0.7692307692307692
 40
0.7692307692307692
 40
0.7692307692307692
 40
0.846153846153846
 40
0.846153846153846
 40
0.846153846153846
 40
0.846153846153846
 40
0.9230769230769229
 40
0.9230769230769229
 40
0.9230769230769229
 40
0.9230769230769229
 40
1.0
 40
1.0
 40
1.0
 40
1.0
 10
2.7523
 20
-19.1815
 30
0.0
 10
4.7446999999999999
 20
-18.372800000000002
 30
0.0
 10
6.8448000000000002
 20
-17.789999999999999
 30
0.0
 10
8.7295999999999996
 20
-16.755199999999999
 30
0.0
 10
8.7295999999999996
 20
-16.755199999999999
 30
0.0
 10
10.3629
 20
-15.858499999999999
 30
0.0
 10
12.143599999999999
 20
-14.9534
 30
0.0
 10
13.2249
 20
-13.4313
 30
0.0
 10
13.2249
 20
-13.4313
 30
0.0
 10
14.867699999999999
 20
-11.1188
 30
0.0
 10
15.9895
 20
-8.6819000000000006
 30
0.0
 10
17.036799999999999
 20
-6.1951999999999998
 30
0.0
 10
17.036799999999999
 20
-6.1951999999999998
 30
0.0
 10
17.319600000000001
 20
-5.5236999999999998
 30
0.0
 10
17.412199999999999
 20
-4.7872000000000003
 30
0.0
 10
17.600000000000001
 20
-4.0831999999999997
 30
0.0
 10
17.600000000000001
 20
-4.0831999999999997
 30
0.0
 10
17.600000000000001
 20
-4.0831999999999997
 30
0.0
 10
17.459199999999999
 20
-2.3936000000000002
 30
0.0
 10
17.459199999999999
 20
-2.3936000000000002
 30
0.0
 10
17.459199999999999
 20
-2.3936000000000002
 30
0.0
 10
17.314299999999999
 20
-0.653
 30
0.0
 10
15.3714
 20
0.4671
 30
0.0
 10
14.784000000000001
 20
2.1120000000000001
 30
0.0
 10
14.784000000000001
 20
2.1120000000000001
 30
0.0
 10
14.784000000000001
 20
2.1120000000000001
 30
0.0
 10
11.968
 20
9.9968000000000004
 30
0.0
 10
11.968
 20
9.9968000000000004
 30
0.0
 10
11.968
 20
9.9968000000000004
 30
0.0
 10
10.4749
 20
12.6286
 30
0.0
 10
8.5335999999999999
 20
15.0527
 30
0.0
 10
7.4889000000000001
 20
17.892399999999999
 30
0.0
 10
7.4889000000000001
 20
17.892399999999999
 30
0.0
 10
6.6715999999999998
 20
20.113800000000001
 30
0.0
 10
7.8880999999999997
 20
23.0212
 30
0.0
 10
6.4767999999999999
 20
24.921600000000002
 30
0.0
 10
6.4767999999999999
 20
24.921600000000002
 30
0.0
 10
5.1356999999999999
 20
26.7273
 30
0.0
 10
2.5205000000000002
 20
27.380299999999998
 30
0.0
 10
0.2816
 20
27.596800000000002
 30
0.0
 10
0.2816
 20
27.596800000000002
 30
0.0
 10
-2.0545
 20
27.822800000000001
 30
0.0
 10
-4.5831999999999997
 20
27.359200000000001
 30
0.0
 10
-6.6176000000000004
 20
26.188800000000001
 30
0.0
 10
-6.6176000000000004
 20
26.188800000000001
 30
0.0
 10
-10.129099999999999
 20
24.168800000000001
 30
0.0
 10
-12.5496
 20
20.6295
 30
0.0
 10
-15.8683
 20
18.3062
 30
0.0
 10
-15.8683
 20
18.3062
 30
0.0
 10
-15.8683
 20
18.3062
 30
0.0
 10
-30.553599999999999
 20
8.0256000000000007
 30
0.0
 10
-30.553599999999999
 20
8.0256000000000007
 30
0.0
  0
SPLINE
  5
2E
100
AcDbEntity
  8
Layer 1
 62
     3
100
AcDbSpline
210
0.0
220
0.0
230
1.0
 70
     0
 71
     3
 72
    56
 73
    52
 74
     0
 42
0.0000000001
 43
0.0000000001
 40
0.0
 40
0.0
 40
0.0
 40
0.0
 40
0.0769230769230769
 40
0.0769230769230769
 40
0.0769230769230769
 40
0.0769230769230769
 40
0.1538461538461539
 40
0.1538461538461539
 40
0.1538461538461539
 40
0.1538461538461539
 40
0.2307692307692308
 40
0.2307692307692308
 40
0.2307692307692308
 40
0.2307692307692308
 40
0.3076923076923077
 40
0.3076923076923077
 40
0.3076923076923077
 40
0.3076923076923077
 40
0.3846153846153846
 40
0.3846153846153846
 40
0.3846153846153846
 40
0.3846153846153846
 40
0.4615384615384616
 40
0.4615384615384616
 40
0.4615384615384616
 40
0.4615384615384616
 40
0.5384615384615386
 40
0.5384615384615386
 40
0.5384615384615386
 40
0.5384615384615386
 40
0.6153846153846154
 40
0.6153846153846154
 40
0.6153846153846154
 40
0.6153846153846154
 40
0.6923076923076923
 40
0.6923076923076923
 40
0.6923076923076923
 40
0.6923076923076923
 40
0.7692307692307692
 40
0.7692307692307692
 40
0.7692307692307692
 40
0.7692307692307692
 40
0.846153846153846
 40
0.846153846153846
 40
0.846153846153846
 40
0.846153846153846
 40
0.9230769230769229
 40
0.9230769230769229
 40
0.9230769230769229
 40
0.9230769230769229
 40
1.0
 40
1.0
 40
1.0
 40
1.0
 10
27.315200000000001
 20
-2.8159999999999998
 30
0.0
 10
25.625599999999999
 20
-5.4443000000000001
 30
0.0
 10
22.808499999999999
 20
-8.1353000000000009
 30
0.0
 10
20.8384
 20
-10.56
 30
0.0
 10
20.8384
 20
-10.56
 30
0.0
 10
20.309100000000001
 20
-11.211399999999999
 30
0.0
 10
18.100300000000001
 20
-12.534800000000001
 30
0.0
 10
18.096900000000002
 20
-11.760999999999999
 30
0.0
 10
18.096900000000002
 20
-11.760999999999999
 30
0.0
 10
18.092600000000001
 20
-10.7814
 30
0.0
 10
18.3795
 20
-9.7565000000000008
 30
0.0
 10
18.673300000000001
 20
-8.8071000000000002
 30
0.0
 10
18.673300000000001
 20
-8.8071000000000002
 30
0.0
 10
19.173200000000001
 20
-7.1917999999999997
 30
0.0
 10
20.212499999999999
 20
-5.5614999999999997
 30
0.0
 10
19.852799999999998
 20
-3.9424000000000001
 30
0.0
 10
19.852799999999998
 20
-3.9424000000000001
 30
0.0
 10
19.852799999999998
 20
-3.9424000000000001
 30
0.0
 10
19.2896
 20
-1.4079999999999999
 30
0.0
 10
19.2896
 20
-1.4079999999999999
 30
0.0
 10
19.2896
 20
-1.4079999999999999
 30
0.0
 10
18.350899999999999
 20
0.0
 30
0.0
 10
17.1508
 20
1.2653000000000001
 30
0.0
 10
16.473600000000001
 20
2.8159999999999998
 30
0.0
 10
16.473600000000001
 20
2.8159999999999998
 30
0.0
 10
15.3508
 20
5.3868
 30
0.0
 10
14.784000000000001
 20
8.1663999999999994
 30
0.0
 10
13.9392
 20
10.8416
 30
0.0
 10
13.9392
 20
10.8416
 30
0.0
 10
13.1882
 20
13.9392
 30
0.0
 10
12.0908
 20
16.972899999999999
 30
0.0
 10
11.686400000000001
 20
20.134399999999999
 30
0.0
 10
11.686400000000001
 20
20.134399999999999
 30
0.0
 10
11.3409
 20
22.835599999999999
 30
0.0
 10
13.0169
 20
25.917899999999999
 30
0.0
 10
11.705299999999999
 20
28.304500000000001
 30
0.0
 10
11.705299999999999
 20
28.304500000000001
 30
0.0
 10
9.8768999999999991
 20
31.631699999999999
 30
0.0
 10
6.5133999999999999
 20
34.106200000000001
 30
0.0
 10
3.0975999999999999
 20
35.763199999999998
 30
0.0
 10
3.0975999999999999
 20
35.763199999999998
 30
0.0
 10
1.1549
 20
36.7057
 30
0.0
 10
-1.5899000000000001
 20
36.831099999999999
 30
0.0
 10
-3.3792
 20
35.622399999999999
 30
0.0
 10
-3.3792
 20
35.622399999999999
 30
0.0
 10
-9.0454000000000008
 20
31.795100000000001
 30
0.0
 10
-12.693199999999999
 20
25.504000000000001
 30
0.0
 10
-18.1632
 20
21.401599999999998
 30
0.0
 10
-18.1632
 20
21.401599999999998
 30
0.0
 10
-18.1632
 20
21.401599999999998
 30
0.0
 10
-32.806399999999996
 20
10.4192
 30
0.0
 10
-32.806399999999996
 20
10.4192
 30
0.0
  0
SPLINE
  5
2F
100
AcDbEntity
  8
Layer 1
 62
    70
100
AcDbSpline
210
0.0
220
0.0
230
1.0
 70
     0
 71
     3
 72
    16
 73
    12
 74
     0
 42
0.0000000001
 43
0.0000000001
 40
0.0
 40
0.0
 40
0.0
 40
0.0
 40
0.3333333333333333
 40
0.3333333333333333
 40
0.3333333333333333
 40
0.3333333333333333
 40
0.6666666666666666
 40
0.6666666666666666
 40
0.6666666666666666
 40
0.6666666666666666
 40
1.0
 40
1.0
 40
1.0
 40
1.0
 10
2.8159999999999998
 20
-19.722100000000001
 30
0.0
 10
5.7401999999999997
 20
-18.916799999999999
 30
0.0
 10
8.7254000000000005
 20
-18.3064
 30
0.0
 10
11.5886
 20
-17.306000000000001
 30
0.0
 10
11.5886
 20
-17.306000000000001
 30
0.0
 10
14.7919
 20
-16.186900000000001
 30
0.0
 10
18.598199999999999
 20
-15.7936
 30
0.0
 10
20.979199999999999
 20
-13.375999999999999
 30
0.0
 10
20.979199999999999
 20
-13.375999999999999
 30
0.0
 10
20.979199999999999
 20
-13.375999999999999
 30
0.0
 10
30.1312
 20
-4.0831999999999997
 30
0.0
 10
30.1312
 20
-4.0831999999999997
 30
0.0
  0
SPLINE
  5
30
100
AcDbEntity
  8
Layer 1
 62
     4
100
AcDbSpline
210
0.0
220
0.0
230
1.0
 70
     0
 71
     3
 72
    40
 73
    36
 74
     0
 42
0.0000000001
 43
0.0000000001
 40
0.0
 40
0.0
 40
0.0
 40
0.0
 40
0.1111111111111111
 40
0.1111111111111111
 40
0.1111111111111111
 40
0.1111111111111111
 40
0.2222222222222222
 40
0.2222222222222222
 40
0.2222222222222222
 40
0.2222222222222222
 40
0.3333333333333333
 40
0.3333333333333333
 40
0.3333333333333333
 40
0.3333333333333333
 40
0.4444444444444444
 40
0.4444444444444444
 40
0.4444444444444444
 40
0.4444444444444444
 40
0.5555555555555556
 40
0.5555555555555556
 40
0.5555555555555556
 40
0.5555555555555556
 40
0.6666666666666667
 40
0.6666666666666667
 40
0.6666666666666667
 40
0.6666666666666667
 40
0.7777777777777779
 40
0.7777777777777779
 40
0.7777777777777779
 40
0.7777777777777779
 40
0.8888888888888891
 40
0.8888888888888891
 40
0.8888888888888891
 40
0.8888888888888891
 40
1.0
 40
1.0
 40
1.0
 40
1.0
 10
2.9567999999999999
 20
-19.430399999999999
 30
0.0
 10
5.6319999999999997
 20
-18.6326
 30
0.0
 10
8.4019999999999992
 20
-17.888300000000001
 30
0.0
 10
10.9171
 20
-16.677399999999999
 30
0.0
 10
10.9171
 20
-16.677399999999999
 30
0.0
 10
13.5326
 20
-15.418200000000001
 30
0.0
 10
16.3474
 20
-14.373699999999999
 30
0.0
 10
18.1632
 20
-12.1088
 30
0.0
 10
18.1632
 20
-12.1088
 30
0.0
 10
20.841699999999999
 20
-8.7678999999999991
 30
0.0
 10
24.212599999999998
 20
-4.984
 30
0.0
 10
24.076799999999999
 20
-0.704
 30
0.0
 10
24.076799999999999
 20
-0.704
 30
0.0
 10
23.9009
 20
4.8399999999999999
 30
0.0
 10
18.415400000000002
 20
9.0652000000000008
 30
0.0
 10
17.3184
 20
14.5024
 30
0.0
 10
17.3184
 20
14.5024
 30
0.0
 10
16.204499999999999
 20
20.023900000000001
 30
0.0
 10
19.303000000000001
 20
26.029299999999999
 30
0.0
 10
17.600000000000001
 20
31.398399999999999
 30
0.0
 10
17.600000000000001
 20
31.398399999999999
 30
0.0
 10
16.3247
 20
35.418900000000001
 30
0.0
 10
12.569699999999999
 20
38.4268
 30
0.0
 10
9.0112000000000005
 20
40.691200000000002
 30
0.0
 10
9.0112000000000005
 20
40.691200000000002
 30
0.0
 10
5.6169000000000002
 20
42.851199999999999
 30
0.0
 10
1.0817000000000001
 20
42.447400000000002
 30
0.0
 10
-2.5344000000000002
 20
44.211199999999998
 30
0.0
 10
-2.5344000000000002
 20
44.211199999999998
 30
0.0
 10
-4.8080999999999996
 20
45.320300000000003
 30
0.0
 10
-7.1166999999999998
 20
46.906799999999997
 30
0.0
 10
-8.3071999999999999
 20
49.139200000000002
 30
0.0
 10
-8.3071999999999999
 20
49.139200000000002
 30
0.0
 10
-8.3071999999999999
 20
49.139200000000002
 30
0.0
 10
-9.4336000000000002
 20
51.251199999999997
 30
0.0
 10
-9.4336000000000002
 20
51.251199999999997
 30
0.0
  0
SPLINE
  5
31
100
AcDbEntity
  8
Layer 1
 62
    40
100
AcDbSpline
210
0.0
220
0.0
230
1.0
 70
     0
 71
     3
 72
    16
 73
    12
 74
     0
 42
0.0000000001
 43
0.0000000001
 40
0.0
 40
0.0
 40
0.0
 40
0.0
 40
0.3333333333333333
 40
0.3333333333333333
 40
0.3333333333333333
 40
0.3333333333333333
 40
0.6666666666666666
 40
0.6666666666666666
 40
0.6666666666666666
 40
0.6666666666666666
 40
1.0
 40
1.0
 40
1.0
 40
1.0
 10
3.0975999999999999
 20
-20.556799999999999
 30
0.0
 10
6.1013000000000002
 20
-19.805900000000001
 30
0.0
 10
9.1249000000000002
 20
-19.130299999999998
 30
0.0
 10
12.1088
 20
-18.303999999999998
 30
0.0
 10
12.1088
 20
-18.303999999999998
 30
0.0
 10
15.228
 20
-17.440300000000001
 30
0.0
 10
18.688500000000001
 20
-17.2531
 30
0.0
 10
21.401599999999998
 20
-15.488
 30
0.0
 10
21.401599999999998
 20
-15.488
 30
0.0
 10
21.401599999999998
 20
-15.488
 30
0.0
 10
33.088000000000001
 20
-7.8848000000000003
 30
0.0
 10
33.088000000000001
 20
-7.8848000000000003
 30
0.0
  0
SPLINE
  5
32
100
AcDbEntity
  8
Layer 1
 62
    40
100
AcDbSpline
210
0.0
220
0.0
230
1.0
 70
     0
 71
     3
 72
    16
 73
    12
 74
     0
 42
0.0000000001
 43
0.0000000001
 40
0.0
 40
0.0
 40
0.0
 40
0.0
 40
0.3333333333333333
 40
0.3333333333333333
 40
0.3333333333333333
 40
0.3333333333333333
 40
0.6666666666666666
 40
0.6666666666666666
 40
0.6666666666666666
 40
0.6666666666666666
 40
1.0
 40
1.0
 40
1.0
 40
1.0
 10
-37.174999999999997
 20
51.154000000000003
 30
0.0
 10
-37.778599999999997
 20
47.853400000000001
 30
0.0
 10
-38.733199999999997
 20
44.552900000000001
 30
0.0
 10
-38.634599999999999
 20
41.252400000000002
 30
0.0
 10
-38.634599999999999
 20
41.252400000000002
 30
0.0
 10
-38.536499999999997
 20
37.969299999999997
 30
0.0
 10
-38.098999999999997
 20
34.584499999999998
 30
0.0
 10
-38.719999999999999
 20
31.398399999999999
 30
0.0
 10
-38.719999999999999
 20
31.398399999999999
 30
0.0
 10
-39.643000000000001
 20
26.6629
 30
0.0
 10
-43.769599999999997
 20
24.597799999999999
 30
0.0
 10
-47.523000000000003
 20
22.718399999999999
 30
0.0
  0
SPLINE
  5
33
100
AcDbEntity
  8
Layer 1
 62
    70
100
AcDbSpline
210
0.0
220
0.0
230
1.0
 70
     0
 71
     3
 72
    16
 73
    12
 74
     0
 42
0.0000000001
 43
0.0000000001
 40
0.0
 40
0.0
 40
0.0
 40
0.0
 40
0.3333333333333333
 40
0.3333333333333333
 40
0.3333333333333333
 40
0.3333333333333333
 40
0.6666666666666666
 40
0.6666666666666666
 40
0.6666666666666666
 40
0.6666666666666666
 40
1.0
 40
1.0
 40
1.0
 40
1.0
 10
-39.505400000000002
 20
17.9114
 30
0.0
 10
-34.977400000000003
 20
20.799399999999999
 30
0.0
 10
-31.221399999999999
 20
22.928000000000001
 30
0.0
 10
-27.676200000000001
 20
27.043600000000001
 30
0.0
 10
-27.676200000000001
 20
27.043600000000001
 30
0.0
 10
-25.3918
 20
29.695699999999999
 30
0.0
 10
-24.238099999999999
 20
36.676699999999997
 30
0.0
 10
-22.791799999999999
 20
40.056600000000003
 30
0.0
 10
-22.791799999999999
 20
40.056600000000003
 30
0.0
 10
-22.791799999999999
 20
40.056600000000003
 30
0.0
 10
-19.436399999999999
 20
47.897799999999997
 30
0.0
 10
-19.436399999999999
 20
47.897799999999997
 30
0.0
  0
SPLINE
  5
34
100
AcDbEntity
  8
Layer 1
 62
     3
100
AcDbSpline
210
0.0
220
0.0
230
1.0
 70
     0
 71
     3
 72
    20
 73
    16
 74
     0
 42
0.0000000001
 43
0.0000000001
 40
0.0
 40
0.0
 40
0.0
 40
0.0
 40
0.25
 40
0.25
 40
0.25
 40
0.25
 40
0.5
 40
0.5
 40
0.5
 40
0.5
 40
0.75
 40
0.75
 40
0.75
 40
0.75
 40
1.0
 40
1.0
 40
1.0
 40
1.0
 10
-37.084000000000003
 20
14.809799999999999
 30
0.0
 10
-33.323300000000003
 20
17.9693
 30
0.0
 10
-29.337
 20
20.878499999999999
 30
0.0
 10
-25.8018
 20
24.288499999999999
 30
0.0
 10
-25.8018
 20
24.288499999999999
 30
0.0
 10
-24.6325
 20
25.416499999999999
 30
0.0
 10
-23.638500000000001
 20
26.944099999999999
 30
0.0
 10
-22.7851
 20
28.326599999999999
 30
0.0
 10
-22.7851
 20
28.326599999999999
 30
0.0
 10
-20.6204
 20
31.833200000000001
 30
0.0
 10
-18.893599999999999
 20
35.267299999999999
 30
0.0
 10
-17.473600000000001
 20
39.025399999999998
 30
0.0
 10
-17.473600000000001
 20
39.025399999999998
 30
0.0
 10
-17.473600000000001
 20
39.025399999999998
 30
0.0
 10
-14.3438
 20
47.308799999999998
 30
0.0
 10
-14.3438
 20
47.308799999999998
 30
0.0
  0
SPLINE
  5
35
100
AcDbEntity
  8
Layer 1
 62
   104
100
AcDbSpline
210
0.0
220
0.0
230
1.0
 70
     0
 71
     3
 72
    44
 73
    40
 74
     0
 42
0.0000000001
 43
0.0000000001
 40
0.0
 40
0.0
 40
0.0
 40
0.0
 40
0.1
 40
0.1
 40
0.1
 40
0.1
 40
0.2
 40
0.2
 40
0.2
 40
0.2
 40
0.3
 40
0.3
 40
0.3
 40
0.3
 40
0.4
 40
0.4
 40
0.4
 40
0.4
 40
0.5
 40
0.5
 40
0.5
 40
0.5
 40
0.6
 40
0.6
 40
0.6
 40
0.6
 40
0.7
 40
0.7
 40
0.7
 40
0.7
 40
0.7999999999999999
 40
0.7999999999999999
 40
0.7999999999999999
 40
0.7999999999999999
 40
0.8999999999999999
 40
0.8999999999999999
 40
0.8999999999999999
 40
0.8999999999999999
 40
1.0
 40
1.0
 40
1.0
 40
1.0
 10
-12.533200000000001
 20
46.3232
 30
0.0
 10
-13.378
 20
43.319499999999998
 30
0.0
 10
-14.5932
 20
40.201900000000002
 30
0.0
 10
-15.769600000000001
 20
37.311999999999998
 30
0.0
 10
-15.769600000000001
 20
37.311999999999998
 30
0.0
 10
-16.7681
 20
34.858800000000002
 30
0.0
 10
-18.491
 20
32.763300000000001
 30
0.0
 10
-19.712
 20
30.412800000000001
 30
0.0
 10
-19.712
 20
30.412800000000001
 30
0.0
 10
-20.370999999999999
 20
29.144200000000001
 30
0.0
 10
-21.072099999999999
 20
27.861599999999999
 30
0.0
 10
-21.401599999999998
 20
26.470400000000001
 30
0.0
 10
-21.401599999999998
 20
26.470400000000001
 30
0.0
 10
-21.514399999999998
 20
25.9937
 30
0.0
 10
-21.450800000000001
 20
24.9298
 30
0.0
 10
-20.979199999999999
 20
25.0624
 30
0.0
 10
-20.979199999999999
 20
25.0624
 30
0.0
 10
-19.412800000000001
 20
25.502800000000001
 30
0.0
 10
-17.9937
 20
26.5367
 30
0.0
 10
-16.896000000000001
 20
27.7376
 30
0.0
 10
-16.896000000000001
 20
27.7376
 30
0.0
 10
-13.957700000000001
 20
30.952500000000001
 30
0.0
 10
-11.959199999999999
 20
34.950899999999997
 30
0.0
 10
-9.0112000000000005
 20
38.156799999999997
 30
0.0
 10
-9.0112000000000005
 20
38.156799999999997
 30
0.0
 10
-8.2140000000000004
 20
39.023800000000001
 30
0.0
 10
-6.9067999999999996
 20
39.215800000000002
 30
0.0
 10
-5.8545999999999996
 20
39.745199999999997
 30
0.0
 10
-5.8545999999999996
 20
39.745199999999997
 30
0.0
 10
-4.3654000000000002
 20
40.440600000000003
 30
0.0
 10
-2.7084999999999999
 20
40.854399999999998
 30
0.0
 10
-1.3868
 20
41.831400000000002
 30
0.0
 10
-1.3868
 20
41.831400000000002
 30
0.0
 10
-0.6755
 20
42.357199999999999
 30
0.0
 10
0.2161
 20
43.2226
 30
0.0
 10
0.0159
 20
44.084200000000003
 30
0.0
 10
0.0159
 20
44.084200000000003
 30
0.0
 10
0.0159
 20
44.084200000000003
 30
0.0
 10
-1.1264000000000001
 20
48.998399999999997
 30
0.0
 10
-1.1264000000000001
 20
48.998399999999997
 30
0.0
  0
SPLINE
  5
36
100
AcDbEntity
  8
Layer 1
 62
     4
100
AcDbSpline
210
0.0
220
0.0
230
1.0
 70
     0
 71
     3
 72
    20
 73
    16
 74
     0
 42
0.0000000001
 43
0.0000000001
 40
0.0
 40
0.0
 40
0.0
 40
0.0
 40
0.25
 40
0.25
 40
0.25
 40
0.25
 40
0.5
 40
0.5
 40
0.5
 40
0.5
 40
0.75
 40
0.75
 40
0.75
 40
0.75
 40
1.0
 40
1.0
 40
1.0
 40
1.0
 10
-35.851999999999997
 20
12.3696
 30
0.0
 10
-32.144300000000001
 20
15.608000000000001
 30
0.0
 10
-27.595300000000002
 20
18.358699999999999
 30
0.0
 10
-24.276800000000001
 20
21.994399999999999
 30
0.0
 10
-24.276800000000001
 20
21.994399999999999
 30
0.0
 10
-21.1691
 20
25.399100000000001
 30
0.0
 10
-18.284099999999999
 20
28.853100000000001
 30
0.0
 10
-16.070399999999999
 20
32.896799999999999
 30
0.0
 10
-16.070399999999999
 20
32.896799999999999
 30
0.0
 10
-13.6555
 20
37.3078
 30
0.0
 10
-9.5744000000000007
 20
41.716500000000003
 30
0.0
 10
-9.5744000000000007
 20
46.745600000000003
 30
0.0
 10
-9.5744000000000007
 20
46.745600000000003
 30
0.0
 10
-9.5744000000000007
 20
46.745600000000003
 30
0.0
 10
-9.5744000000000007
 20
51.814399999999999
 30
0.0
 10
-9.5744000000000007
 20
51.814399999999999
 30
0.0
  0
SPLINE
  5
37
100
AcDbEntity
  8
Layer 1
 62
     1
100
AcDbSpline
210
0.0
220
0.0
230
1.0
 70
     1
 71
     3
 72
    92
 73
    88
 74
     0
 42
0.0000000001
 43
0.0000000001
 40
0.0
 40
0.0
 40
0.0
 40
0.0
 40
0.0454545454545455
 40
0.0454545454545455
 40
0.0454545454545455
 40
0.0454545454545455
 40
0.0909090909090909
 40
0.0909090909090909
 40
0.0909090909090909
 40
0.0909090909090909
 40
0.1363636363636364
 40
0.1363636363636364
 40
0.1363636363636364
 40
0.1363636363636364
 40
0.1818181818181818
 40
0.1818181818181818
 40
0.1818181818181818
 40
0.1818181818181818
 40
0.2272727272727273
 40
0.2272727272727273
 40
0.2272727272727273
 40
0.2272727272727273
 40
0.2727272727272728
 40
0.2727272727272728
 40
0.2727272727272728
 40
0.2727272727272728
 40
0.3181818181818182
 40
0.3181818181818182
 40
0.3181818181818182
 40
0.3181818181818182
 40
0.3636363636363637
 40
0.3636363636363637
 40
0.3636363636363637
 40
0.3636363636363637
 40
0.4090909090909092
 40
0.4090909090909092
 40
0.4090909090909092
 40
0.4090909090909092
 40
0.4545454545454546
 40
0.4545454545454546
 40
0.4545454545454546
 40
0.4545454545454546
 40
0.5000000000000001
 40
0.5000000000000001
 40
0.5000000000000001
 40
0.5000000000000001
 40
0.5454545454545455
 40
0.5454545454545455
 40
0.5454545454545455
 40
0.5454545454545455
 40
0.5909090909090909
 40
0.5909090909090909
 40
0.5909090909090909
 40
0.5909090909090909
 40
0.6363636363636364
 40
0.6363636363636364
 40
0.6363636363636364
 40
0.6363636363636364
 40
0.6818181818181818
 40
0.6818181818181818
 40
0.6818181818181818
 40
0.6818181818181818
 40
0.7272727272727272
 40
0.7272727272727272
 40
0.7272727272727272
 40
0.7272727272727272
 40
0.7727272727272726
 40
0.7727272727272726
 40
0.7727272727272726
 40
0.7727272727272726
 40
0.818181818181818
 40
0.818181818181818
 40
0.818181818181818
 40
0.818181818181818
 40
0.8636363636363634
 40
0.8636363636363634
 40
0.8636363636363634
 40
0.8636363636363634
 40
0.9090909090909088
 40
0.9090909090909088
 40
0.9090909090909088
 40
0.9090909090909088
 40
0.9545454545454543
 40
0.9545454545454543
 40
0.9545454545454543
 40
0.9545454545454543
 40
1.0
 40
1.0
 40
1.0
 40
1.0
 10
-19.833200000000001
 20
1.1264000000000001
 30
0.0
 10
-19.833200000000001
 20
1.1264000000000001
 30
0.0
 10
-21.077400000000001
 20
1.1264000000000001
 30
0.0
 10
-21.077400000000001
 20
1.1264000000000001
 30
0.0
 10
-21.077400000000001
 20
1.1264000000000001
 30
0.0
 10
-21.077400000000001
 20
1.1264000000000001
 30
0.0
 10
-21.077400000000001
 20
1.3207
 30
0.0
 10
-21.077400000000001
 20
1.3207
 30
0.0
 10
-21.077400000000001
 20
1.3207
 30
0.0
 10
-21.077400000000001
 20
1.3207
 30
0.0
 10
-20.366199999999999
 20
1.9956
 30
0.0
 10
-20.366199999999999
 20
1.9956
 30
0.0
 10
-20.366199999999999
 20
1.9956
 30
0.0
 10
-20.2255
 20
2.1288
 30
0.0
 10
-20.132899999999999
 20
2.2341000000000002
 30
0.0
 10
-20.087199999999999
 20
2.3113000000000001
 30
0.0
 10
-20.087199999999999
 20
2.3113000000000001
 30
0.0
 10
-20.041599999999999
 20
2.3883999999999999
 30
0.0
 10
-20.018999999999998
 20
2.4683999999999999
 30
0.0
 10
-20.018999999999998
 20
2.5510999999999999
 30
0.0
 10
-20.018999999999998
 20
2.5510999999999999
 30
0.0
 10
-20.018999999999998
 20
2.6766999999999999
 30
0.0
 10
-20.059999999999999
 20
2.7820999999999998
 30
0.0
 10
-20.142299999999999
 20
2.8672
 30
0.0
 10
-20.142299999999999
 20
2.8672
 30
0.0
 10
-20.224599999999999
 20
2.9523999999999999
 30
0.0
 10
-20.329000000000001
 20
2.9946999999999999
 30
0.0
 10
-20.456
 20
2.9946999999999999
 30
0.0
 10
-20.456
 20
2.9946999999999999
 30
0.0
 10
-20.586300000000001
 20
2.9946999999999999
 30
0.0
 10
-20.6907
 20
2.9514
 30
0.0
 10
-20.768799999999999
 20
2.8643999999999998
 30
0.0
 10
-20.768799999999999
 20
2.8643999999999998
 30
0.0
 10
-20.846900000000002
 20
2.7774000000000001
 30
0.0
 10
-20.885899999999999
 20
2.6621000000000001
 30
0.0
 10
-20.885899999999999
 20
2.5177
 30
0.0
 10
-20.885899999999999
 20
2.5177
 30
0.0
 10
-20.885899999999999
 20
2.5106999999999999
 30
0.0
 10
-20.885400000000001
 20
2.5007999999999999
 30
0.0
 10
-20.884499999999999
 20
2.4891000000000001
 30
0.0
 10
-20.884499999999999
 20
2.4891000000000001
 30
0.0
 10
-20.883600000000001
 20
2.4767999999999999
 30
0.0
 10
-20.883099999999999
 20
2.4679000000000002
 30
0.0
 10
-20.883099999999999
 20
2.4613
 30
0.0
 10
-20.883099999999999
 20
2.4613
 30
0.0
 10
-20.883099999999999
 20
2.4613
 30
0.0
 10
-21.077400000000001
 20
2.4613
 30
0.0
 10
-21.077400000000001
 20
2.4613
 30
0.0
 10
-21.077400000000001
 20
2.4613
 30
0.0
 10
-21.077400000000001
 20
2.4613
 30
0.0
 10
-21.077400000000001
 20
2.4914000000000001
 30
0.0
 10
-21.077400000000001
 20
2.4914000000000001
 30
0.0
 10
-21.077400000000001
 20
2.4914000000000001
 30
0.0
 10
-21.077400000000001
 20
2.6937000000000002
 30
0.0
 10
-21.0181
 20
2.8582999999999998
 30
0.0
 10
-20.899100000000001
 20
2.9853000000000001
 30
0.0
 10
-20.899100000000001
 20
2.9853000000000001
 30
0.0
 10
-20.780100000000001
 20
3.1118000000000001
 30
0.0
 10
-20.6267
 20
3.1753
 30
0.0
 10
-20.439499999999999
 20
3.1753
 30
0.0
 10
-20.439499999999999
 20
3.1753
 30
0.0
 10
-20.269300000000001
 20
3.1753
 30
0.0
 10
-20.1249
 20
3.1141999999999999
 30
0.0
 10
-20.0059
 20
2.9914000000000001
 30
0.0
 10
-20.0059
 20
2.9914000000000001
 30
0.0
 10
-19.886900000000001
 20
2.8685999999999998
 30
0.0
 10
-19.8276
 20
2.7172000000000001
 30
0.0
 10
-19.8276
 20
2.5375000000000001
 30
0.0
 10
-19.8276
 20
2.5375000000000001
 30
0.0
 10
-19.8276
 20
2.4335
 30
0.0
 10
-19.852499999999999
 20
2.3338000000000001
 30
0.0
 10
-19.902899999999999
 20
2.2387999999999999
 30
0.0
 10
-19.902899999999999
 20
2.2387999999999999
 30
0.0
 10
-19.9527
 20
2.1438000000000001
 30
0.0
 10
-20.031700000000001
 20
2.0459999999999998
 30
0.0
 10
-20.1404
 20
1.9448000000000001
 30
0.0
 10
-20.1404
 20
1.9448000000000001
 30
0.0
 10
-20.1404
 20
1.9448000000000001
 30
0.0
 10
-20.816800000000001
 20
1.3207
 30
0.0
 10
-20.816800000000001
 20
1.3207
 30
0.0
 10
-20.816800000000001
 20
1.3207
 30
0.0
 10
-20.816800000000001
 20
1.3207
 30
0.0
 10
-19.833200000000001
 20
1.3207
 30
0.0
 10
-19.833200000000001
 20
1.3207
 30
0.0
 10
-19.833200000000001
 20
1.3207
 30
0.0
 10
-19.833200000000001
 20
1.3207
 30
0.0
 10
-19.833200000000001
 20
1.1264000000000001
 30
0.0
 10
-19.833200000000001
 20
1.1264000000000001
 30
0.0
  0
SPLINE
  5
38
100
AcDbEntity
  8
Layer 1
 62
     1
100
AcDbSpline
210
0.0
220
0.0
230
1.0
 70
     1
 71
     3
 72
   132
 73
   128
 74
     0
 42
0.0000000001
 43
0.0000000001
 40
0.0
 40
0.0
 40
0.0
 40
0.0
 40
0.03125
 40
0.03125
 40
0.03125
 40
0.03125
 40
0.0625
 40
0.0625
 40
0.0625
 40
0.0625
 40
0.09375
 40
0.09375
 40
0.09375
 40
0.09375
 40
0.125
 40
0.125
 40
0.125
 40
0.125
 40
0.15625
 40
0.15625
 40
0.15625
 40
0.15625
 40
0.1875
 40
0.1875
 40
0.1875
 40
0.1875
 40
0.21875
 40
0.21875
 40
0.21875
 40
0.21875
 40
0.25
 40
0.25
 40
0.25
 40
0.25
 40
0.28125
 40
0.28125
 40
0.28125
 40
0.28125
 40
0.3125
 40
0.3125
 40
0.3125
 40
0.3125
 40
0.34375
 40
0.34375
 40
0.34375
 40
0.34375
 40
0.375
 40
0.375
 40
0.375
 40
0.375
 40
0.40625
 40
0.40625
 40
0.40625
 40
0.40625
 40
0.4375
 40
0.4375
 40
0.4375
 40
0.4375
 40
0.46875
 40
0.46875
 40
0.46875
 40
0.46875
 40
0.5
 40
0.5
 40
0.5
 40
0.5
 40
0.53125
 40
0.53125
 40
0.53125
 40
0.53125
 40
0.5625
 40
0.5625
 40
0.5625
 40
0.5625
 40
0.59375
 40
0.59375
 40
0.59375
 40
0.59375
 40
0.625
 40
0.625
 40
0.625
 40
0.625
 40
0.65625
 40
0.65625
 40
0.65625
 40
0.65625
 40
0.6875
 40
0.6875
 40
0.6875
 40
0.6875
 40
0.71875
 40
0.71875
 40
0.71875
 40
0.71875
 40
0.75
 40
0.75
 40
0.75
 40
0.75
 40
0.78125
 40
0.78125
 40
0.78125
 40
0.78125
 40
0.8125
 40
0.8125
 40
0.8125
 40
0.8125
 40
0.84375
 40
0.84375
 40
0.84375
 40
0.84375
 40
0.875
 40
0.875
 40
0.875
 40
0.875
 40
0.90625
 40
0.90625
 40
0.90625
 40
0.90625
 40
0.9375
 40
0.9375
 40
0.9375
 40
0.9375
 40
0.96875
 40
0.96875
 40
0.96875
 40
0.96875
 40
1.0
 40
1.0
 40
1.0
 40
1.0
 10
-19.316299999999998
 20
1.7355
 30
0.0
 10
-19.316299999999998
 20
1.7355
 30
0.0
 10
-19.316299999999998
 20
1.7191000000000001
 30
0.0
 10
-19.316299999999998
 20
1.7191000000000001
 30
0.0
 10
-19.316299999999998
 20
1.7191000000000001
 30
0.0
 10
-19.316299999999998
 20
1.5864
 30
0.0
 10
-19.275400000000001
 20
1.4767999999999999
 30
0.0
 10
-19.193100000000001
 20
1.3893
 30
0.0
 10
-19.193100000000001
 20
1.3893
 30
0.0
 10
-19.110800000000001
 20
1.3023
 30
0.0
 10
-19.0092
 20
1.2585999999999999
 30
0.0
 10
-18.887799999999999
 20
1.2585999999999999
 30
0.0
 10
-18.887799999999999
 20
1.2585999999999999
 30
0.0
 10
-18.756599999999999
 20
1.2585999999999999
 30
0.0
 10
-18.648399999999999
 20
1.3018000000000001
 30
0.0
 10
-18.563300000000002
 20
1.3889
 30
0.0
 10
-18.563300000000002
 20
1.3889
 30
0.0
 10
-18.478200000000001
 20
1.4759
 30
0.0
 10
-18.4358
 20
1.5864
 30
0.0
 10
-18.4358
 20
1.7219
 30
0.0
 10
-18.4358
 20
1.7219
 30
0.0
 10
-18.4358
 20
1.8752
 30
0.0
 10
-18.481000000000002
 20
1.9919
 30
0.0
 10
-18.570799999999998
 20
2.0714000000000001
 30
0.0
 10
-18.570799999999998
 20
2.0714000000000001
 30
0.0
 10
-18.660699999999999
 20
2.1509
 30
0.0
 10
-18.7928
 20
2.1903999999999999
 30
0.0
 10
-18.9664
 20
2.1903999999999999
 30
0.0
 10
-18.9664
 20
2.1903999999999999
 30
0.0
 10
-18.9909
 20
2.1903999999999999
 30
0.0
 10
-19.010100000000001
 20
2.1903999999999999
 30
0.0
 10
-19.023299999999999
 20
2.1899000000000002
 30
0.0
 10
-19.023299999999999
 20
2.1899000000000002
 30
0.0
 10
-19.036899999999999
 20
2.1894
 30
0.0
 10
-19.048200000000001
 20
2.1884999999999999
 30
0.0
 10
-19.058599999999998
 20
2.1875
 30
0.0
 10
-19.058599999999998
 20
2.1875
 30
0.0
 10
-19.058599999999998
 20
2.1875
 30
0.0
 10
-19.058599999999998
 20
2.3544999999999998
 30
0.0
 10
-19.058599999999998
 20
2.3544999999999998
 30
0.0
 10
-19.058599999999998
 20
2.3544999999999998
 30
0.0
 10
-19.048200000000001
 20
2.3536000000000001
 30
0.0
 10
-19.037400000000002
 20
2.3525999999999998
 30
0.0
 10
-19.025700000000001
 20
2.3521999999999998
 30
0.0
 10
-19.025700000000001
 20
2.3521999999999998
 30
0.0
 10
-19.013400000000001
 20
2.3517000000000001
 30
0.0
 10
-18.9956
 20
2.3517000000000001
 30
0.0
 10
-18.971599999999999
 20
2.3517000000000001
 30
0.0
 10
-18.971599999999999
 20
2.3517000000000001
 30
0.0
 10
-18.839400000000001
 20
2.3517000000000001
 30
0.0
 10
-18.740100000000002
 20
2.379
 30
0.0
 10
-18.673400000000001
 20
2.4335
 30
0.0
 10
-18.673400000000001
 20
2.4335
 30
0.0
 10
-18.606999999999999
 20
2.4885999999999999
 30
0.0
 10
-18.573599999999999
 20
2.5699999999999998
 30
0.0
 10
-18.573599999999999
 20
2.6781000000000001
 30
0.0
 10
-18.573599999999999
 20
2.6781000000000001
 30
0.0
 10
-18.573599999999999
 20
2.7722000000000002
 30
0.0
 10
-18.6023
 20
2.8494000000000002
 30
0.0
 10
-18.659199999999998
 20
2.9100000000000001
 30
0.0
 10
-18.659199999999998
 20
2.9100000000000001
 30
0.0
 10
-18.716200000000001
 20
2.9706999999999999
 30
0.0
 10
-18.787700000000001
 20
3.0007999999999999
 30
0.0
 10
-18.873699999999999
 20
3.0007999999999999
 30
0.0
 10
-18.873699999999999
 20
3.0007999999999999
 30
0.0
 10
-18.972000000000001
 20
3.0007999999999999
 30
0.0
 10
-19.049199999999999
 20
2.9712000000000001
 30
0.0
 10
-19.1052
 20
2.9119000000000002
 30
0.0
 10
-19.1052
 20
2.9119000000000002
 30
0.0
 10
-19.1616
 20
2.8525999999999998
 30
0.0
 10
-19.190300000000001
 20
2.7698999999999998
 30
0.0
 10
-19.1922
 20
2.6631
 30
0.0
 10
-19.1922
 20
2.6631
 30
0.0
 10
-19.1922
 20
2.6631
 30
0.0
 10
-19.375599999999999
 20
2.6631
 30
0.0
 10
-19.375599999999999
 20
2.6631
 30
0.0
 10
-19.375599999999999
 20
2.6631
 30
0.0
 10
-19.367100000000001
 20
2.8191999999999999
 30
0.0
 10
-19.317299999999999
 20
2.9434
 30
0.0
 10
-19.2256
 20
3.0350999999999999
 30
0.0
 10
-19.2256
 20
3.0350999999999999
 30
0.0
 10
-19.133400000000002
 20
3.1269
 30
0.0
 10
-19.013000000000002
 20
3.173
 30
0.0
 10
-18.8643
 20
3.173
 30
0.0
 10
-18.8643
 20
3.173
 30
0.0
 10
-18.727399999999999
 20
3.173
 30
0.0
 10
-18.610800000000001
 20
3.1240000000000001
 30
0.0
 10
-18.514800000000001
 20
3.0261999999999998
 30
0.0
 10
-18.514800000000001
 20
3.0261999999999998
 30
0.0
 10
-18.418900000000001
 20
2.9283999999999999
 30
0.0
 10
-18.370899999999999
 20
2.8121999999999998
 30
0.0
 10
-18.370899999999999
 20
2.6781000000000001
 30
0.0
 10
-18.370899999999999
 20
2.6781000000000001
 30
0.0
 10
-18.370899999999999
 20
2.5981999999999998
 30
0.0
 10
-18.386399999999998
 20
2.5286
 30
0.0
 10
-18.417000000000002
 20
2.4693000000000001
 30
0.0
 10
-18.417000000000002
 20
2.4693000000000001
 30
0.0
 10
-18.4481
 20
2.4100000000000001
 30
0.0
 10
-18.497399999999999
 20
2.3559000000000001
 30
0.0
 10
-18.565200000000001
 20
2.3060999999999998
 30
0.0
 10
-18.565200000000001
 20
2.3060999999999998
 30
0.0
 10
-18.456
 20
2.2482000000000002
 30
0.0
 10
-18.373699999999999
 20
2.1724999999999999
 30
0.0
 10
-18.3187
 20
2.0779999999999998
 30
0.0
 10
-18.3187
 20
2.0779999999999998
 30
0.0
 10
-18.2637
 20
1.9839
 30
0.0
 10
-18.235900000000001
 20
1.8714999999999999
 30
0.0
 10
-18.235900000000001
 20
1.7412000000000001
 30
0.0
 10
-18.235900000000001
 20
1.7412000000000001
 30
0.0
 10
-18.235900000000001
 20
1.5563
 30
0.0
 10
-18.296600000000002
 20
1.4011
 30
0.0
 10
-18.418399999999998
 20
1.2749999999999999
 30
0.0
 10
-18.418399999999998
 20
1.2749999999999999
 30
0.0
 10
-18.540199999999999
 20
1.1494
 30
0.0
 10
-18.693100000000001
 20
1.0864
 30
0.0
 10
-18.8766
 20
1.0864
 30
0.0
 10
-18.8766
 20
1.0864
 30
0.0
 10
-19.072700000000001
 20
1.0864
 30
0.0
 10
-19.227399999999999
 20
1.1443000000000001
 30
0.0
 10
-19.3413
 20
1.26
 30
0.0
 10
-19.3413
 20
1.26
 30
0.0
 10
-19.455100000000002
 20
1.3756999999999999
 30
0.0
 10
-19.513400000000001
 20
1.5342
 30
0.0
 10
-19.516300000000001
 20
1.7355
 30
0.0
 10
-19.516300000000001
 20
1.7355
 30
0.0
 10
-19.516300000000001
 20
1.7355
 30
0.0
 10
-19.316299999999998
 20
1.7355
 30
0.0
 10
-19.316299999999998
 20
1.7355
 30
0.0
  0
SPLINE
  5
39
100
AcDbEntity
  8
Layer 1
 62
     1
100
AcDbSpline
210
0.0
220
0.0
230
1.0
 70
     1
 71
     3
 72
    44
 73
    40
 74
     0
 42
0.0000000001
 43
0.0000000001
 40
0.0
 40
0.0
 40
0.0
 40
0.0
 40
0.1
 40
0.1
 40
0.1
 40
0.1
 40
0.2
 40
0.2
 40
0.2
 40
0.2
 40
0.3
 40
0.3
 40
0.3
 40
0.3
 40
0.4
 40
0.4
 40
0.4
 40
0.4
 40
0.5
 40
0.5
 40
0.5
 40
0.5
 40
0.6
 40
0.6
 40
0.6
 40
0.6
 40
0.7
 40
0.7
 40
0.7
 40
0.7
 40
0.7999999999999999
 40
0.7999999999999999
 40
0.7999999999999999
 40
0.7999999999999999
 40
0.8999999999999999
 40
0.8999999999999999
 40
0.8999999999999999
 40
0.8999999999999999
 40
1.0
 40
1.0
 40
1.0
 40
1.0
 10
-17.759
 20
1.7890999999999999
 30
0.0
 10
-17.759
 20
1.6226
 30
0.0
 10
-17.716200000000001
 20
1.4933000000000001
 30
0.0
 10
-17.630600000000001
 20
1.4006000000000001
 30
0.0
 10
-17.630600000000001
 20
1.4006000000000001
 30
0.0
 10
-17.545500000000001
 20
1.3080000000000001
 30
0.0
 10
-17.4269
 20
1.2614000000000001
 30
0.0
 10
-17.275500000000001
 20
1.2614000000000001
 30
0.0
 10
-17.275500000000001
 20
1.2614000000000001
 30
0.0
 10
-17.124500000000001
 20
1.2614000000000001
 30
0.0
 10
-17.006399999999999
 20
1.3075000000000001
 30
0.0
 10
-16.9208
 20
1.3992
 30
0.0
 10
-16.9208
 20
1.3992
 30
0.0
 10
-16.835699999999999
 20
1.4908999999999999
 30
0.0
 10
-16.792899999999999
 20
1.6193
 30
0.0
 10
-16.792899999999999
 20
1.7835000000000001
 30
0.0
 10
-16.792899999999999
 20
1.7835000000000001
 30
0.0
 10
-16.792899999999999
 20
1.7835000000000001
 30
0.0
 10
-16.792899999999999
 20
2.4754
 30
0.0
 10
-16.792899999999999
 20
2.4754
 30
0.0
 10
-16.792899999999999
 20
2.4754
 30
0.0
 10
-16.792899999999999
 20
2.6385999999999998
 30
0.0
 10
-16.835699999999999
 20
2.7665999999999999
 30
0.0
 10
-16.921800000000001
 20
2.8592
 30
0.0
 10
-16.921800000000001
 20
2.8592
 30
0.0
 10
-17.0078
 20
2.9514
 30
0.0
 10
-17.125399999999999
 20
2.9975000000000001
 30
0.0
 10
-17.275500000000001
 20
2.9975000000000001
 30
0.0
 10
-17.275500000000001
 20
2.9975000000000001
 30
0.0
 10
-17.4269
 20
2.9975000000000001
 30
0.0
 10
-17.545500000000001
 20
2.9510000000000001
 30
0.0
 10
-17.630600000000001
 20
2.8578000000000001
 30
0.0
 10
-17.630600000000001
 20
2.8578000000000001
 30
0.0
 10
-17.716200000000001
 20
2.7642000000000002
 30
0.0
 10
-17.759
 20
2.6343999999999999
 30
0.0
 10
-17.759
 20
2.4668999999999999
 30
0.0
 10
-17.759
 20
2.4668999999999999
 30
0.0
 10
-17.759
 20
2.4668999999999999
 30
0.0
 10
-17.759
 20
1.7890999999999999
 30
0.0
 10
-17.759
 20
1.7890999999999999
 30
0.0
  0
SPLINE
  5
3A
100
AcDbEntity
  8
Layer 1
 62
     1
100
AcDbSpline
210
0.0
220
0.0
230
1.0
 70
     1
 71
     3
 72
    68
 73
    64
 74
     0
 42
0.0000000001
 43
0.0000000001
 40
0.0
 40
0.0
 40
0.0
 40
0.0
 40
0.0625
 40
0.0625
 40
0.0625
 40
0.0625
 40
0.125
 40
0.125
 40
0.125
 40
0.125
 40
0.1875
 40
0.1875
 40
0.1875
 40
0.1875
 40
0.25
 40
0.25
 40
0.25
 40
0.25
 40
0.3125
 40
0.3125
 40
0.3125
 40
0.3125
 40
0.375
 40
0.375
 40
0.375
 40
0.375
 40
0.4375
 40
0.4375
 40
0.4375
 40
0.4375
 40
0.5
 40
0.5
 40
0.5
 40
0.5
 40
0.5625
 40
0.5625
 40
0.5625
 40
0.5625
 40
0.625
 40
0.625
 40
0.625
 40
0.625
 40
0.6875
 40
0.6875
 40
0.6875
 40
0.6875
 40
0.75
 40
0.75
 40
0.75
 40
0.75
 40
0.8125
 40
0.8125
 40
0.8125
 40
0.8125
 40
0.875
 40
0.875
 40
0.875
 40
0.875
 40
0.9375
 40
0.9375
 40
0.9375
 40
0.9375
 40
1.0
 40
1.0
 40
1.0
 40
1.0
 10
-17.953299999999999
 20
1.8320000000000001
 30
0.0
 10
-17.953299999999999
 20
1.8320000000000001
 30
0.0
 10
-17.953299999999999
 20
2.427
 30
0.0
 10
-17.953299999999999
 20
2.427
 30
0.0
 10
-17.953299999999999
 20
2.427
 30
0.0
 10
-17.953299999999999
 20
2.5568
 30
0.0
 10
-17.943899999999999
 20
2.6541999999999999
 30
0.0
 10
-17.9255
 20
2.7200000000000002
 30
0.0
 10
-17.9255
 20
2.7200000000000002
 30
0.0
 10
-17.9072
 20
2.7854000000000001
 30
0.0
 10
-17.877099999999999
 20
2.847
 30
0.0
 10
-17.834700000000002
 20
2.9039000000000001
 30
0.0
 10
-17.834700000000002
 20
2.9039000000000001
 30
0.0
 10
-17.7684
 20
2.9908999999999999
 30
0.0
 10
-17.6875
 20
3.0581999999999998
 30
0.0
 10
-17.5916
 20
3.1052
 30
0.0
 10
-17.5916
 20
3.1052
 30
0.0
 10
-17.4956
 20
3.1518000000000002
 30
0.0
 10
-17.3902
 20
3.1753
 30
0.0
 10
-17.274999999999999
 20
3.1753
 30
0.0
 10
-17.274999999999999
 20
3.1753
 30
0.0
 10
-17.064699999999998
 20
3.1753
 30
0.0
 10
-16.8992
 20
3.1099000000000001
 30
0.0
 10
-16.777799999999999
 20
2.9796
 30
0.0
 10
-16.777799999999999
 20
2.9796
 30
0.0
 10
-16.656500000000001
 20
2.8494000000000002
 30
0.0
 10
-16.595800000000001
 20
2.6686999999999999
 30
0.0
 10
-16.595800000000001
 20
2.4382999999999999
 30
0.0
 10
-16.595800000000001
 20
2.4382999999999999
 30
0.0
 10
-16.595800000000001
 20
2.4382999999999999
 30
0.0
 10
-16.595800000000001
 20
1.8234999999999999
 30
0.0
 10
-16.595800000000001
 20
1.8234999999999999
 30
0.0
 10
-16.595800000000001
 20
1.8234999999999999
 30
0.0
 10
-16.595800000000001
 20
1.7153
 30
0.0
 10
-16.604700000000001
 20
1.6254999999999999
 30
0.0
 10
-16.6221
 20
1.5544
 30
0.0
 10
-16.6221
 20
1.5544
 30
0.0
 10
-16.639500000000002
 20
1.4829000000000001
 30
0.0
 10
-16.667300000000001
 20
1.4204000000000001
 30
0.0
 10
-16.7059
 20
1.3663000000000001
 30
0.0
 10
-16.7059
 20
1.3663000000000001
 30
0.0
 10
-16.769400000000001
 20
1.2768999999999999
 30
0.0
 10
-16.8507
 20
1.2081999999999999
 30
0.0
 10
-16.949999999999999
 20
1.1593
 30
0.0
 10
-16.949999999999999
 20
1.1593
 30
0.0
 10
-17.049199999999999
 20
1.1109
 30
0.0
 10
-17.157399999999999
 20
1.0864
 30
0.0
 10
-17.274999999999999
 20
1.0864
 30
0.0
 10
-17.274999999999999
 20
1.0864
 30
0.0
 10
-17.3902
 20
1.0864
 30
0.0
 10
-17.495100000000001
 20
1.1094999999999999
 30
0.0
 10
-17.590599999999998
 20
1.1559999999999999
 30
0.0
 10
-17.590599999999998
 20
1.1559999999999999
 30
0.0
 10
-17.686599999999999
 20
1.2025999999999999
 30
0.0
 10
-17.7684
 20
1.2699
 30
0.0
 10
-17.837599999999998
 20
1.3577999999999999
 30
0.0
 10
-17.837599999999998
 20
1.3577999999999999
 30
0.0
 10
-17.878
 20
1.4091
 30
0.0
 10
-17.9072
 20
1.4721
 30
0.0
 10
-17.9255
 20
1.546
 30
0.0
 10
-17.9255
 20
1.546
 30
0.0
 10
-17.943899999999999
 20
1.6197999999999999
 30
0.0
 10
-17.953299999999999
 20
1.7153
 30
0.0
 10
-17.953299999999999
 20
1.8320000000000001
 30
0.0
  0
SPLINE
  5
3B
100
AcDbEntity
  8
Layer 1
 62
    30
100
AcDbSpline
210
0.0
220
0.0
230
1.0
 70
     1
 71
     3
 72
    92
 73
    88
 74
     0
 42
0.0000000001
 43
0.0000000001
 40
0.0
 40
0.0
 40
0.0
 40
0.0
 40
0.0454545454545455
 40
0.0454545454545455
 40
0.0454545454545455
 40
0.0454545454545455
 40
0.0909090909090909
 40
0.0909090909090909
 40
0.0909090909090909
 40
0.0909090909090909
 40
0.1363636363636364
 40
0.1363636363636364
 40
0.1363636363636364
 40
0.1363636363636364
 40
0.1818181818181818
 40
0.1818181818181818
 40
0.1818181818181818
 40
0.1818181818181818
 40
0.2272727272727273
 40
0.2272727272727273
 40
0.2272727272727273
 40
0.2272727272727273
 40
0.2727272727272728
 40
0.2727272727272728
 40
0.2727272727272728
 40
0.2727272727272728
 40
0.3181818181818182
 40
0.3181818181818182
 40
0.3181818181818182
 40
0.3181818181818182
 40
0.3636363636363637
 40
0.3636363636363637
 40
0.3636363636363637
 40
0.3636363636363637
 40
0.4090909090909092
 40
0.4090909090909092
 40
0.4090909090909092
 40
0.4090909090909092
 40
0.4545454545454546
 40
0.4545454545454546
 40
0.4545454545454546
 40
0.4545454545454546
 40
0.5000000000000001
 40
0.5000000000000001
 40
0.5000000000000001
 40
0.5000000000000001
 40
0.5454545454545455
 40
0.5454545454545455
 40
0.5454545454545455
 40
0.5454545454545455
 40
0.5909090909090909
 40
0.5909090909090909
 40
0.5909090909090909
 40
0.5909090909090909
 40
0.6363636363636364
 40
0.6363636363636364
 40
0.6363636363636364
 40
0.6363636363636364
 40
0.6818181818181818
 40
0.6818181818181818
 40
0.6818181818181818
 40
0.6818181818181818
 40
0.7272727272727272
 40
0.7272727272727272
 40
0.7272727272727272
 40
0.7272727272727272
 40
0.7727272727272726
 40
0.7727272727272726
 40
0.7727272727272726
 40
0.7727272727272726
 40
0.818181818181818
 40
0.818181818181818
 40
0.818181818181818
 40
0.818181818181818
 40
0.8636363636363634
 40
0.8636363636363634
 40
0.8636363636363634
 40
0.8636363636363634
 40
0.9090909090909088
 40
0.9090909090909088
 40
0.9090909090909088
 40
0.9090909090909088
 40
0.9545454545454543
 40
0.9545454545454543
 40
0.9545454545454543
 40
0.9545454545454543
 40
1.0
 40
1.0
 40
1.0
 40
1.0
 10
-27.577200000000001
 20
2.1120000000000001
 30
0.0
 10
-27.577200000000001
 20
2.1120000000000001
 30
0.0
 10
-28.821400000000001
 20
2.1120000000000001
 30
0.0
 10
-28.821400000000001
 20
2.1120000000000001
 30
0.0
 10
-28.821400000000001
 20
2.1120000000000001
 30
0.0
 10
-28.821400000000001
 20
2.1120000000000001
 30
0.0
 10
-28.821400000000001
 20
2.3062999999999998
 30
0.0
 10
-28.821400000000001
 20
2.3062999999999998
 30
0.0
 10
-28.821400000000001
 20
2.3062999999999998
 30
0.0
 10
-28.821400000000001
 20
2.3062999999999998
 30
0.0
 10
-28.110199999999999
 20
2.9811999999999999
 30
0.0
 10
-28.110199999999999
 20
2.9811999999999999
 30
0.0
 10
-28.110199999999999
 20
2.9811999999999999
 30
0.0
 10
-27.9695
 20
3.1143999999999998
 30
0.0
 10
-27.876899999999999
 20
3.2197
 30
0.0
 10
-27.831199999999999
 20
3.2968999999999999
 30
0.0
 10
-27.831199999999999
 20
3.2968999999999999
 30
0.0
 10
-27.785599999999999
 20
3.3740000000000001
 30
0.0
 10
-27.763000000000002
 20
3.4540000000000002
 30
0.0
 10
-27.763000000000002
 20
3.5367000000000002
 30
0.0
 10
-27.763000000000002
 20
3.5367000000000002
 30
0.0
 10
-27.763000000000002
 20
3.6623000000000001
 30
0.0
 10
-27.803999999999998
 20
3.7677
 30
0.0
 10
-27.886299999999999
 20
3.8527999999999998
 30
0.0
 10
-27.886299999999999
 20
3.8527999999999998
 30
0.0
 10
-27.968599999999999
 20
3.9380000000000002
 30
0.0
 10
-28.073
 20
3.9803000000000002
 30
0.0
 10
-28.199999999999999
 20
3.9803000000000002
 30
0.0
 10
-28.199999999999999
 20
3.9803000000000002
 30
0.0
 10
-28.330300000000001
 20
3.9803000000000002
 30
0.0
 10
-28.434699999999999
 20
3.9369999999999998
 30
0.0
 10
-28.512799999999999
 20
3.8500000000000001
 30
0.0
 10
-28.512799999999999
 20
3.8500000000000001
 30
0.0
 10
-28.590900000000001
 20
3.7629999999999999
 30
0.0
 10
-28.629899999999999
 20
3.6476999999999999
 30
0.0
 10
-28.629899999999999
 20
3.5032999999999999
 30
0.0
 10
-28.629899999999999
 20
3.5032999999999999
 30
0.0
 10
-28.629899999999999
 20
3.4963000000000002
 30
0.0
 10
-28.6294
 20
3.4864000000000002
 30
0.0
 10
-28.628499999999999
 20
3.4746999999999999
 30
0.0
 10
-28.628499999999999
 20
3.4746999999999999
 30
0.0
 10
-28.627600000000001
 20
3.4624000000000001
 30
0.0
 10
-28.627099999999999
 20
3.4535
 30
0.0
 10
-28.627099999999999
 20
3.4468999999999999
 30
0.0
 10
-28.627099999999999
 20
3.4468999999999999
 30
0.0
 10
-28.627099999999999
 20
3.4468999999999999
 30
0.0
 10
-28.821400000000001
 20
3.4468999999999999
 30
0.0
 10
-28.821400000000001
 20
3.4468999999999999
 30
0.0
 10
-28.821400000000001
 20
3.4468999999999999
 30
0.0
 10
-28.821400000000001
 20
3.4468999999999999
 30
0.0
 10
-28.821400000000001
 20
3.4769999999999999
 30
0.0
 10
-28.821400000000001
 20
3.4769999999999999
 30
0.0
 10
-28.821400000000001
 20
3.4769999999999999
 30
0.0
 10
-28.821400000000001
 20
3.6793
 30
0.0
 10
-28.7621
 20
3.8439000000000001
 30
0.0
 10
-28.6431
 20
3.9708999999999999
 30
0.0
 10
-28.6431
 20
3.9708999999999999
 30
0.0
 10
-28.524100000000001
 20
4.0974000000000004
 30
0.0
 10
-28.370699999999999
 20
4.1608999999999998
 30
0.0
 10
-28.183499999999999
 20
4.1608999999999998
 30
0.0
 10
-28.183499999999999
 20
4.1608999999999998
 30
0.0
 10
-28.013300000000001
 20
4.1608999999999998
 30
0.0
 10
-27.8689
 20
4.0998000000000001
 30
0.0
 10
-27.7499
 20
3.9769999999999999
 30
0.0
 10
-27.7499
 20
3.9769999999999999
 30
0.0
 10
-27.6309
 20
3.8542000000000001
 30
0.0
 10
-27.5716
 20
3.7027999999999999
 30
0.0
 10
-27.5716
 20
3.5230999999999999
 30
0.0
 10
-27.5716
 20
3.5230999999999999
 30
0.0
 10
-27.5716
 20
3.4190999999999998
 30
0.0
 10
-27.596499999999999
 20
3.3193999999999999
 30
0.0
 10
-27.646899999999999
 20
3.2244000000000002
 30
0.0
 10
-27.646899999999999
 20
3.2244000000000002
 30
0.0
 10
-27.6967
 20
3.1294
 30
0.0
 10
-27.775700000000001
 20
3.0316000000000001
 30
0.0
 10
-27.884399999999999
 20
2.9304000000000001
 30
0.0
 10
-27.884399999999999
 20
2.9304000000000001
 30
0.0
 10
-27.884399999999999
 20
2.9304000000000001
 30
0.0
 10
-28.5608
 20
2.3062999999999998
 30
0.0
 10
-28.5608
 20
2.3062999999999998
 30
0.0
 10
-28.5608
 20
2.3062999999999998
 30
0.0
 10
-28.5608
 20
2.3062999999999998
 30
0.0
 10
-27.577200000000001
 20
2.3062999999999998
 30
0.0
 10
-27.577200000000001
 20
2.3062999999999998
 30
0.0
 10
-27.577200000000001
 20
2.3062999999999998
 30
0.0
 10
-27.577200000000001
 20
2.3062999999999998
 30
0.0
 10
-27.577200000000001
 20
2.1120000000000001
 30
0.0
 10
-27.577200000000001
 20
2.1120000000000001
 30
0.0
  0
SPLINE
  5
3C
100
AcDbEntity
  8
Layer 1
 62
    30
100
AcDbSpline
210
0.0
220
0.0
230
1.0
 70
     1
 71
     3
 72
    44
 73
    40
 74
     0
 42
0.0000000001
 43
0.0000000001
 40
0.0
 40
0.0
 40
0.0
 40
0.0
 40
0.1
 40
0.1
 40
0.1
 40
0.1
 40
0.2
 40
0.2
 40
0.2
 40
0.2
 40
0.3
 40
0.3
 40
0.3
 40
0.3
 40
0.4
 40
0.4
 40
0.4
 40
0.4
 40
0.5
 40
0.5
 40
0.5
 40
0.5
 40
0.6
 40
0.6
 40
0.6
 40
0.6
 40
0.7
 40
0.7
 40
0.7
 40
0.7
 40
0.7999999999999999
 40
0.7999999999999999
 40
0.7999999999999999
 40
0.7999999999999999
 40
0.8999999999999999
 40
0.8999999999999999
 40
0.8999999999999999
 40
0.8999999999999999
 40
1.0
 40
1.0
 40
1.0
 40
1.0
 10
-27.0975
 20
2.7747000000000002
 30
0.0
 10
-27.0975
 20
2.6082000000000001
 30
0.0
 10
-27.0547
 20
2.4788999999999999
 30
0.0
 10
-26.969100000000001
 20
2.3862000000000001
 30
0.0
 10
-26.969100000000001
 20
2.3862000000000001
 30
0.0
 10
-26.884
 20
2.2936000000000001
 30
0.0
 10
-26.7654
 20
2.2469999999999999
 30
0.0
 10
-26.614000000000001
 20
2.2469999999999999
 30
0.0
 10
-26.614000000000001
 20
2.2469999999999999
 30
0.0
 10
-26.463000000000001
 20
2.2469999999999999
 30
0.0
 10
-26.344899999999999
 20
2.2930999999999999
 30
0.0
 10
-26.2593
 20
2.3847999999999998
 30
0.0
 10
-26.2593
 20
2.3847999999999998
 30
0.0
 10
-26.174199999999999
 20
2.4765000000000001
 30
0.0
 10
-26.131399999999999
 20
2.6049000000000002
 30
0.0
 10
-26.131399999999999
 20
2.7690999999999999
 30
0.0
 10
-26.131399999999999
 20
2.7690999999999999
 30
0.0
 10
-26.131399999999999
 20
2.7690999999999999
 30
0.0
 10
-26.131399999999999
 20
3.4609999999999999
 30
0.0
 10
-26.131399999999999
 20
3.4609999999999999
 30
0.0
 10
-26.131399999999999
 20
3.4609999999999999
 30
0.0
 10
-26.131399999999999
 20
3.6242000000000001
 30
0.0
 10
-26.174199999999999
 20
3.7522000000000002
 30
0.0
 10
-26.260300000000001
 20
3.8448000000000002
 30
0.0
 10
-26.260300000000001
 20
3.8448000000000002
 30
0.0
 10
-26.346299999999999
 20
3.9369999999999998
 30
0.0
 10
-26.463899999999999
 20
3.9830999999999999
 30
0.0
 10
-26.614000000000001
 20
3.9830999999999999
 30
0.0
 10
-26.614000000000001
 20
3.9830999999999999
 30
0.0
 10
-26.7654
 20
3.9830999999999999
 30
0.0
 10
-26.884
 20
3.9365999999999999
 30
0.0
 10
-26.969100000000001
 20
3.8433999999999999
 30
0.0
 10
-26.969100000000001
 20
3.8433999999999999
 30
0.0
 10
-27.0547
 20
3.7498
 30
0.0
 10
-27.0975
 20
3.6200000000000001
 30
0.0
 10
-27.0975
 20
3.4525000000000001
 30
0.0
 10
-27.0975
 20
3.4525000000000001
 30
0.0
 10
-27.0975
 20
3.4525000000000001
 30
0.0
 10
-27.0975
 20
2.7747000000000002
 30
0.0
 10
-27.0975
 20
2.7747000000000002
 30
0.0
  0
SPLINE
  5
3D
100
AcDbEntity
  8
Layer 1
 62
    30
100
AcDbSpline
210
0.0
220
0.0
230
1.0
 70
     1
 71
     3
 72
    68
 73
    64
 74
     0
 42
0.0000000001
 43
0.0000000001
 40
0.0
 40
0.0
 40
0.0
 40
0.0
 40
0.0625
 40
0.0625
 40
0.0625
 40
0.0625
 40
0.125
 40
0.125
 40
0.125
 40
0.125
 40
0.1875
 40
0.1875
 40
0.1875
 40
0.1875
 40
0.25
 40
0.25
 40
0.25
 40
0.25
 40
0.3125
 40
0.3125
 40
0.3125
 40
0.3125
 40
0.375
 40
0.375
 40
0.375
 40
0.375
 40
0.4375
 40
0.4375
 40
0.4375
 40
0.4375
 40
0.5
 40
0.5
 40
0.5
 40
0.5
 40
0.5625
 40
0.5625
 40
0.5625
 40
0.5625
 40
0.625
 40
0.625
 40
0.625
 40
0.625
 40
0.6875
 40
0.6875
 40
0.6875
 40
0.6875
 40
0.75
 40
0.75
 40
0.75
 40
0.75
 40
0.8125
 40
0.8125
 40
0.8125
 40
0.8125
 40
0.875
 40
0.875
 40
0.875
 40
0.875
 40
0.9375
 40
0.9375
 40
0.9375
 40
0.9375
 40
1.0
 40
1.0
 40
1.0
 40
1.0
 10
-27.291799999999999
 20
2.8176000000000001
 30
0.0
 10
-27.291799999999999
 20
2.8176000000000001
 30
0.0
 10
-27.291799999999999
 20
3.4125999999999999
 30
0.0
 10
-27.291799999999999
 20
3.4125999999999999
 30
0.0
 10
-27.291799999999999
 20
3.4125999999999999
 30
0.0
 10
-27.291799999999999
 20
3.5424000000000002
 30
0.0
 10
-27.282399999999999
 20
3.6398000000000001
 30
0.0
 10
-27.263999999999999
 20
3.7056
 30
0.0
 10
-27.263999999999999
 20
3.7056
 30
0.0
 10
-27.245699999999999
 20
3.7709999999999999
 30
0.0
 10
-27.215599999999998
 20
3.8325999999999998
 30
0.0
 10
-27.173200000000001
 20
3.8895
 30
0.0
 10
-27.173200000000001
 20
3.8895
 30
0.0
 10
-27.1069
 20
3.9765000000000001
 30
0.0
 10
-27.026
 20
4.0438000000000001
 30
0.0
 10
-26.930099999999999
 20
4.0907999999999998
 30
0.0
 10
-26.930099999999999
 20
4.0907999999999998
 30
0.0
 10
-26.834099999999999
 20
4.1374000000000004
 30
0.0
 10
-26.7287
 20
4.1608999999999998
 30
0.0
 10
-26.613499999999998
 20
4.1608999999999998
 30
0.0
 10
-26.613499999999998
 20
4.1608999999999998
 30
0.0
 10
-26.403199999999998
 20
4.1608999999999998
 30
0.0
 10
-26.2377
 20
4.0955000000000004
 30
0.0
 10
-26.116299999999999
 20
3.9651999999999998
 30
0.0
 10
-26.116299999999999
 20
3.9651999999999998
 30
0.0
 10
-25.995000000000001
 20
3.835
 30
0.0
 10
-25.9343
 20
3.6543000000000001
 30
0.0
 10
-25.9343
 20
3.4239000000000002
 30
0.0
 10
-25.9343
 20
3.4239000000000002
 30
0.0
 10
-25.9343
 20
3.4239000000000002
 30
0.0
 10
-25.9343
 20
2.8090999999999999
 30
0.0
 10
-25.9343
 20
2.8090999999999999
 30
0.0
 10
-25.9343
 20
2.8090999999999999
 30
0.0
 10
-25.9343
 20
2.7008999999999999
 30
0.0
 10
-25.943200000000001
 20
2.6111
 30
0.0
 10
-25.960599999999999
 20
2.54
 30
0.0
 10
-25.960599999999999
 20
2.54
 30
0.0
 10
-25.978000000000002
 20
2.4685000000000001
 30
0.0
 10
-26.005800000000001
 20
2.4060000000000001
 30
0.0
 10
-26.0444
 20
2.3519000000000001
 30
0.0
 10
-26.0444
 20
2.3519000000000001
 30
0.0
 10
-26.107900000000001
 20
2.2625000000000002
 30
0.0
 10
-26.1892
 20
2.1938
 30
0.0
 10
-26.288499999999999
 20
2.1448999999999998
 30
0.0
 10
-26.288499999999999
 20
2.1448999999999998
 30
0.0
 10
-26.387699999999999
 20
2.0964999999999998
 30
0.0
 10
-26.495899999999999
 20
2.0720000000000001
 30
0.0
 10
-26.613499999999998
 20
2.0720000000000001
 30
0.0
 10
-26.613499999999998
 20
2.0720000000000001
 30
0.0
 10
-26.7287
 20
2.0720000000000001
 30
0.0
 10
-26.833600000000001
 20
2.0951
 30
0.0
 10
-26.929099999999998
 20
2.1415999999999999
 30
0.0
 10
-26.929099999999998
 20
2.1415999999999999
 30
0.0
 10
-27.025099999999998
 20
2.1882000000000001
 30
0.0
 10
-27.1069
 20
2.2555000000000001
 30
0.0
 10
-27.176100000000002
 20
2.3433999999999999
 30
0.0
 10
-27.176100000000002
 20
2.3433999999999999
 30
0.0
 10
-27.2165
 20
2.3946999999999998
 30
0.0
 10
-27.245699999999999
 20
2.4577
 30
0.0
 10
-27.263999999999999
 20
2.5316000000000001
 30
0.0
 10
-27.263999999999999
 20
2.5316000000000001
 30
0.0
 10
-27.282399999999999
 20
2.6053999999999999
 30
0.0
 10
-27.291799999999999
 20
2.7008999999999999
 30
0.0
 10
-27.291799999999999
 20
2.8176000000000001
 30
0.0
  0
SPLINE
  5
3E
100
AcDbEntity
  8
Layer 1
 62
    30
100
AcDbSpline
210
0.0
220
0.0
230
1.0
 70
     1
 71
     3
 72
    96
 73
    92
 74
     0
 42
0.0000000001
 43
0.0000000001
 40
0.0
 40
0.0
 40
0.0
 40
0.0
 40
0.0434782608695652
 40
0.0434782608695652
 40
0.0434782608695652
 40
0.0434782608695652
 40
0.0869565217391304
 40
0.0869565217391304
 40
0.0869565217391304
 40
0.0869565217391304
 40
0.1304347826086957
 40
0.1304347826086957
 40
0.1304347826086957
 40
0.1304347826086957
 40
0.1739130434782609
 40
0.1739130434782609
 40
0.1739130434782609
 40
0.1739130434782609
 40
0.2173913043478261
 40
0.2173913043478261
 40
0.2173913043478261
 40
0.2173913043478261
 40
0.2608695652173913
 40
0.2608695652173913
 40
0.2608695652173913
 40
0.2608695652173913
 40
0.3043478260869565
 40
0.3043478260869565
 40
0.3043478260869565
 40
0.3043478260869565
 40
0.3478260869565217
 40
0.3478260869565217
 40
0.3478260869565217
 40
0.3478260869565217
 40
0.3913043478260869
 40
0.3913043478260869
 40
0.3913043478260869
 40
0.3913043478260869
 40
0.4347826086956521
 40
0.4347826086956521
 40
0.4347826086956521
 40
0.4347826086956521
 40
0.4782608695652173
 40
0.4782608695652173
 40
0.4782608695652173
 40
0.4782608695652173
 40
0.5217391304347825
 40
0.5217391304347825
 40
0.5217391304347825
 40
0.5217391304347825
 40
0.5652173913043477
 40
0.5652173913043477
 40
0.5652173913043477
 40
0.5652173913043477
 40
0.6086956521739129
 40
0.6086956521739129
 40
0.6086956521739129
 40
0.6086956521739129
 40
0.6521739130434781
 40
0.6521739130434781
 40
0.6521739130434781
 40
0.6521739130434781
 40
0.6956521739130432
 40
0.6956521739130432
 40
0.6956521739130432
 40
0.6956521739130432
 40
0.7391304347826084
 40
0.7391304347826084
 40
0.7391304347826084
 40
0.7391304347826084
 40
0.7826086956521736
 40
0.7826086956521736
 40
0.7826086956521736
 40
0.7826086956521736
 40
0.8260869565217388
 40
0.8260869565217388
 40
0.8260869565217388
 40
0.8260869565217388
 40
0.869565217391304
 40
0.869565217391304
 40
0.869565217391304
 40
0.869565217391304
 40
0.9130434782608692
 40
0.9130434782608692
 40
0.9130434782608692
 40
0.9130434782608692
 40
0.9565217391304344
 40
0.9565217391304344
 40
0.9565217391304344
 40
0.9565217391304344
 40
1.0
 40
1.0
 40
1.0
 40
1.0
 10
-25.700099999999999
 20
2.7210999999999999
 30
0.0
 10
-25.700099999999999
 20
2.7210999999999999
 30
0.0
 10
-25.5002
 20
2.7210999999999999
 30
0.0
 10
-25.5002
 20
2.7210999999999999
 30
0.0
 10
-25.5002
 20
2.7210999999999999
 30
0.0
 10
-25.492699999999999
 20
2.5908000000000002
 30
0.0
 10
-25.4419
 20
2.4798
 30
0.0
 10
-25.347300000000001
 20
2.3889999999999998
 30
0.0
 10
-25.347300000000001
 20
2.3889999999999998
 30
0.0
 10
-25.252800000000001
 20
2.2982999999999998
 30
0.0
 10
-25.142700000000001
 20
2.2526000000000002
 30
0.0
 10
-25.0166
 20
2.2526000000000002
 30
0.0
 10
-25.0166
 20
2.2526000000000002
 30
0.0
 10
-24.881699999999999
 20
2.2526000000000002
 30
0.0
 10
-24.767399999999999
 20
2.3033999999999999
 30
0.0
 10
-24.674199999999999
 20
2.4049999999999998
 30
0.0
 10
-24.674199999999999
 20
2.4049999999999998
 30
0.0
 10
-24.581099999999999
 20
2.5062000000000002
 30
0.0
 10
-24.534500000000001
 20
2.6318000000000001
 30
0.0
 10
-24.534500000000001
 20
2.7804000000000002
 30
0.0
 10
-24.534500000000001
 20
2.7804000000000002
 30
0.0
 10
-24.534500000000001
 20
2.9308999999999998
 30
0.0
 10
-24.581099999999999
 20
3.0527000000000002
 30
0.0
 10
-24.674199999999999
 20
3.1463000000000001
 30
0.0
 10
-24.674199999999999
 20
3.1463000000000001
 30
0.0
 10
-24.767399999999999
 20
3.2395
 30
0.0
 10
-24.889600000000002
 20
3.286
 30
0.0
 10
-25.040199999999999
 20
3.286
 30
0.0
 10
-25.040199999999999
 20
3.286
 30
0.0
 10
-25.125299999999999
 20
3.286
 30
0.0
 10
-25.202400000000001
 20
3.2667999999999999
 30
0.0
 10
-25.271599999999999
 20
3.2286999999999999
 30
0.0
 10
-25.271599999999999
 20
3.2286999999999999
 30
0.0
 10
-25.340299999999999
 20
3.1905999999999999
 30
0.0
 10
-25.401399999999999
 20
3.1326999999999998
 30
0.0
 10
-25.454599999999999
 20
3.0546000000000002
 30
0.0
 10
-25.454599999999999
 20
3.0546000000000002
 30
0.0
 10
-25.454599999999999
 20
3.0546000000000002
 30
0.0
 10
-25.6065
 20
3.1246999999999998
 30
0.0
 10
-25.6065
 20
3.1246999999999998
 30
0.0
 10
-25.6065
 20
3.1246999999999998
 30
0.0
 10
-25.6065
 20
3.1246999999999998
 30
0.0
 10
-25.428699999999999
 20
4.1185999999999998
 30
0.0
 10
-25.428699999999999
 20
4.1185999999999998
 30
0.0
 10
-25.428699999999999
 20
4.1185999999999998
 30
0.0
 10
-25.428699999999999
 20
4.1185999999999998
 30
0.0
 10
-24.523700000000002
 20
4.1185999999999998
 30
0.0
 10
-24.523700000000002
 20
4.1185999999999998
 30
0.0
 10
-24.523700000000002
 20
4.1185999999999998
 30
0.0
 10
-24.523700000000002
 20
4.1185999999999998
 30
0.0
 10
-24.523700000000002
 20
3.9215
 30
0.0
 10
-24.523700000000002
 20
3.9215
 30
0.0
 10
-24.523700000000002
 20
3.9215
 30
0.0
 10
-24.523700000000002
 20
3.9215
 30
0.0
 10
-25.260300000000001
 20
3.9215
 30
0.0
 10
-25.260300000000001
 20
3.9215
 30
0.0
 10
-25.260300000000001
 20
3.9215
 30
0.0
 10
-25.260300000000001
 20
3.9215
 30
0.0
 10
-25.361000000000001
 20
3.3618000000000001
 30
0.0
 10
-25.361000000000001
 20
3.3618000000000001
 30
0.0
 10
-25.361000000000001
 20
3.3618000000000001
 30
0.0
 10
-25.303100000000001
 20
3.4032
 30
0.0
 10
-25.246200000000002
 20
3.4333
 30
0.0
 10
-25.189699999999998
 20
3.4521000000000002
 30
0.0
 10
-25.189699999999998
 20
3.4521000000000002
 30
0.0
 10
-25.1328
 20
3.4708999999999999
 30
0.0
 10
-25.0717
 20
3.4803000000000002
 30
0.0
 10
-25.005800000000001
 20
3.4803000000000002
 30
0.0
 10
-25.005800000000001
 20
3.4803000000000002
 30
0.0
 10
-24.810199999999998
 20
3.4803000000000002
 30
0.0
 10
-24.649799999999999
 20
3.4140000000000001
 30
0.0
 10
-24.5246
 20
3.2818000000000001
 30
0.0
 10
-24.5246
 20
3.2818000000000001
 30
0.0
 10
-24.399999999999999
 20
3.1496
 30
0.0
 10
-24.337399999999999
 20
2.9807999999999999
 30
0.0
 10
-24.337399999999999
 20
2.7747000000000002
 30
0.0
 10
-24.337399999999999
 20
2.7747000000000002
 30
0.0
 10
-24.337399999999999
 20
2.5800000000000001
 30
0.0
 10
-24.404199999999999
 20
2.4144000000000001
 30
0.0
 10
-24.537800000000001
 20
2.2776000000000001
 30
0.0
 10
-24.537800000000001
 20
2.2776000000000001
 30
0.0
 10
-24.671399999999998
 20
2.1406999999999998
 30
0.0
 10
-24.8337
 20
2.0720000000000001
 30
0.0
 10
-25.023700000000002
 20
2.0720000000000001
 30
0.0
 10
-25.023700000000002
 20
2.0720000000000001
 30
0.0
 10
-25.2043
 20
2.0720000000000001
 30
0.0
 10
-25.359100000000002
 20
2.1326999999999998
 30
0.0
 10
-25.486499999999999
 20
2.2545000000000002
 30
0.0
 10
-25.486499999999999
 20
2.2545000000000002
 30
0.0
 10
-25.614000000000001
 20
2.3763000000000001
 30
0.0
 10
-25.685500000000001
 20
2.532
 30
0.0
 10
-25.700099999999999
 20
2.7210999999999999
 30
0.0
  0
SPLINE
  5
3F
100
AcDbEntity
  8
Layer 1
 62
    40
100
AcDbSpline
210
0.0
220
0.0
230
1.0
 70
     1
 71
     3
 72
    28
 73
    24
 74
     0
 42
0.0000000001
 43
0.0000000001
 40
0.0
 40
0.0
 40
0.0
 40
0.0
 40
0.1666666666666667
 40
0.1666666666666667
 40
0.1666666666666667
 40
0.1666666666666667
 40
0.3333333333333333
 40
0.3333333333333333
 40
0.3333333333333333
 40
0.3333333333333333
 40
0.5
 40
0.5
 40
0.5
 40
0.5
 40
0.6666666666666666
 40
0.6666666666666666
 40
0.6666666666666666
 40
0.6666666666666666
 40
0.8333333333333333
 40
0.8333333333333333
 40
0.8333333333333333
 40
0.8333333333333333
 40
1.0
 40
1.0
 40
1.0
 40
1.0
 10
-35.400700000000001
 20
48.299999999999997
 30
0.0
 10
-35.400700000000001
 20
48.299999999999997
 30
0.0
 10
-35.609999999999999
 20
48.299999999999997
 30
0.0
 10
-35.609999999999999
 20
48.299999999999997
 30
0.0
 10
-35.609999999999999
 20
48.299999999999997
 30
0.0
 10
-35.609999999999999
 20
48.299999999999997
 30
0.0
 10
-35.609999999999999
 20
50.134399999999999
 30
0.0
 10
-35.609999999999999
 20
50.134399999999999
 30
0.0
 10
-35.609999999999999
 20
50.134399999999999
 30
0.0
 10
-35.609999999999999
 20
50.134399999999999
 30
0.0
 10
-35.959899999999998
 20
50.134399999999999
 30
0.0
 10
-35.959899999999998
 20
50.134399999999999
 30
0.0
 10
-35.959899999999998
 20
50.134399999999999
 30
0.0
 10
-35.959899999999998
 20
50.134399999999999
 30
0.0
 10
-35.959899999999998
 20
50.306600000000003
 30
0.0
 10
-35.959899999999998
 20
50.306600000000003
 30
0.0
 10
-35.959899999999998
 20
50.306600000000003
 30
0.0
 10
-35.959899999999998
 20
50.306600000000003
 30
0.0
 10
-35.400700000000001
 20
50.306600000000003
 30
0.0
 10
-35.400700000000001
 20
50.306600000000003
 30
0.0
 10
-35.400700000000001
 20
50.306600000000003
 30
0.0
 10
-35.400700000000001
 20
50.306600000000003
 30
0.0
 10
-35.400700000000001
 20
48.299999999999997
 30
0.0
 10
-35.400700000000001
 20
48.299999999999997
 30
0.0
  0
SPLINE
  5
40
100
AcDbEntity
  8
Layer 1
 62
    40
100
AcDbSpline
210
0.0
220
0.0
230
1.0
 70
     1
 71
     3
 72
    32
 73
    28
 74
     0
 42
0.0000000001
 43
0.0000000001
 40
0.0
 40
0.0
 40
0.0
 40
0.0
 40
0.1428571428571429
 40
0.1428571428571429
 40
0.1428571428571429
 40
0.1428571428571429
 40
0.2857142857142857
 40
0.2857142857142857
 40
0.2857142857142857
 40
0.2857142857142857
 40
0.4285714285714286
 40
0.4285714285714286
 40
0.4285714285714286
 40
0.4285714285714286
 40
0.5714285714285714
 40
0.5714285714285714
 40
0.5714285714285714
 40
0.5714285714285714
 40
0.7142857142857142
 40
0.7142857142857142
 40
0.7142857142857142
 40
0.7142857142857142
 40
0.857142857142857
 40
0.857142857142857
 40
0.857142857142857
 40
0.857142857142857
 40
1.0
 40
1.0
 40
1.0
 40
1.0
 10
-34.149999999999999
 20
48.299999999999997
 30
0.0
 10
-34.149999999999999
 20
48.299999999999997
 30
0.0
 10
-34.370600000000003
 20
48.299999999999997
 30
0.0
 10
-34.370600000000003
 20
48.299999999999997
 30
0.0
 10
-34.370600000000003
 20
48.299999999999997
 30
0.0
 10
-34.370600000000003
 20
48.299999999999997
 30
0.0
 10
-33.576599999999999
 20
50.109499999999997
 30
0.0
 10
-33.576599999999999
 20
50.109499999999997
 30
0.0
 10
-33.576599999999999
 20
50.109499999999997
 30
0.0
 10
-33.576599999999999
 20
50.109499999999997
 30
0.0
 10
-34.454799999999999
 20
50.109499999999997
 30
0.0
 10
-34.454799999999999
 20
50.109499999999997
 30
0.0
 10
-34.454799999999999
 20
50.109499999999997
 30
0.0
 10
-34.454799999999999
 20
50.109499999999997
 30
0.0
 10
-34.454799999999999
 20
50.306600000000003
 30
0.0
 10
-34.454799999999999
 20
50.306600000000003
 30
0.0
 10
-34.454799999999999
 20
50.306600000000003
 30
0.0
 10
-34.454799999999999
 20
50.306600000000003
 30
0.0
 10
-33.347999999999999
 20
50.306600000000003
 30
0.0
 10
-33.347999999999999
 20
50.306600000000003
 30
0.0
 10
-33.347999999999999
 20
50.306600000000003
 30
0.0
 10
-33.347999999999999
 20
50.306600000000003
 30
0.0
 10
-33.347999999999999
 20
50.125999999999998
 30
0.0
 10
-33.347999999999999
 20
50.125999999999998
 30
0.0
 10
-33.347999999999999
 20
50.125999999999998
 30
0.0
 10
-33.347999999999999
 20
50.125999999999998
 30
0.0
 10
-34.149999999999999
 20
48.299999999999997
 30
0.0
 10
-34.149999999999999
 20
48.299999999999997
 30
0.0
  0
SPLINE
  5
41
100
AcDbEntity
  8
Layer 1
 62
    40
100
AcDbSpline
210
0.0
220
0.0
230
1.0
 70
     1
 71
     3
 72
    96
 73
    92
 74
     0
 42
0.0000000001
 43
0.0000000001
 40
0.0
 40
0.0
 40
0.0
 40
0.0
 40
0.0434782608695652
 40
0.0434782608695652
 40
0.0434782608695652
 40
0.0434782608695652
 40
0.0869565217391304
 40
0.0869565217391304
 40
0.0869565217391304
 40
0.0869565217391304
 40
0.1304347826086957
 40
0.1304347826086957
 40
0.1304347826086957
 40
0.1304347826086957
 40
0.1739130434782609
 40
0.1739130434782609
 40
0.1739130434782609
 40
0.1739130434782609
 40
0.2173913043478261
 40
0.2173913043478261
 40
0.2173913043478261
 40
0.2173913043478261
 40
0.2608695652173913
 40
0.2608695652173913
 40
0.2608695652173913
 40
0.2608695652173913
 40
0.3043478260869565
 40
0.3043478260869565
 40
0.3043478260869565
 40
0.3043478260869565
 40
0.3478260869565217
 40
0.3478260869565217
 40
0.3478260869565217
 40
0.3478260869565217
 40
0.3913043478260869
 40
0.3913043478260869
 40
0.3913043478260869
 40
0.3913043478260869
 40
0.4347826086956521
 40
0.4347826086956521
 40
0.4347826086956521
 40
0.4347826086956521
 40
0.4782608695652173
 40
0.4782608695652173
 40
0.4782608695652173
 40
0.4782608695652173
 40
0.5217391304347825
 40
0.5217391304347825
 40
0.5217391304347825
 40
0.5217391304347825
 40
0.5652173913043477
 40
0.5652173913043477
 40
0.5652173913043477
 40
0.5652173913043477
 40
0.6086956521739129
 40
0.6086956521739129
 40
0.6086956521739129
 40
0.6086956521739129
 40
0.6521739130434781
 40
0.6521739130434781
 40
0.6521739130434781
 40
0.6521739130434781
 40
0.6956521739130432
 40
0.6956521739130432
 40
0.6956521739130432
 40
0.6956521739130432
 40
0.7391304347826084
 40
0.7391304347826084
 40
0.7391304347826084
 40
0.7391304347826084
 40
0.7826086956521736
 40
0.7826086956521736
 40
0.7826086956521736
 40
0.7826086956521736
 40
0.8260869565217388
 40
0.8260869565217388
 40
0.8260869565217388
 40
0.8260869565217388
 40
0.869565217391304
 40
0.869565217391304
 40
0.869565217391304
 40
0.869565217391304
 40
0.9130434782608692
 40
0.9130434782608692
 40
0.9130434782608692
 40
0.9130434782608692
 40
0.9565217391304344
 40
0.9565217391304344
 40
0.9565217391304344
 40
0.9565217391304344
 40
1.0
 40
1.0
 40
1.0
 40
1.0
 10
-33.027299999999997
 20
48.909100000000002
 30
0.0
 10
-33.027299999999997
 20
48.909100000000002
 30
0.0
 10
-32.827399999999997
 20
48.909100000000002
 30
0.0
 10
-32.827399999999997
 20
48.909100000000002
 30
0.0
 10
-32.827399999999997
 20
48.909100000000002
 30
0.0
 10
-32.819899999999997
 20
48.778799999999997
 30
0.0
 10
-32.769100000000002
 20
48.6678
 30
0.0
 10
-32.674500000000002
 20
48.576999999999998
 30
0.0
 10
-32.674500000000002
 20
48.576999999999998
 30
0.0
 10
-32.579999999999998
 20
48.4863
 30
0.0
 10
-32.469900000000003
 20
48.440600000000003
 30
0.0
 10
-32.343800000000002
 20
48.440600000000003
 30
0.0
 10
-32.343800000000002
 20
48.440600000000003
 30
0.0
 10
-32.2089
 20
48.440600000000003
 30
0.0
 10
-32.0946
 20
48.491399999999999
 30
0.0
 10
-32.001399999999997
 20
48.593000000000004
 30
0.0
 10
-32.001399999999997
 20
48.593000000000004
 30
0.0
 10
-31.908300000000001
 20
48.694200000000002
 30
0.0
 10
-31.861699999999999
 20
48.819800000000001
 30
0.0
 10
-31.861699999999999
 20
48.968400000000003
 30
0.0
 10
-31.861699999999999
 20
48.968400000000003
 30
0.0
 10
-31.861699999999999
 20
49.118899999999996
 30
0.0
 10
-31.908300000000001
 20
49.240699999999997
 30
0.0
 10
-32.001399999999997
 20
49.334299999999999
 30
0.0
 10
-32.001399999999997
 20
49.334299999999999
 30
0.0
 10
-32.0946
 20
49.427500000000002
 30
0.0
 10
-32.216799999999999
 20
49.473999999999997
 30
0.0
 10
-32.367400000000004
 20
49.473999999999997
 30
0.0
 10
-32.367400000000004
 20
49.473999999999997
 30
0.0
 10
-32.452500000000001
 20
49.473999999999997
 30
0.0
 10
-32.529600000000002
 20
49.454799999999999
 30
0.0
 10
-32.598799999999997
 20
49.416699999999999
 30
0.0
 10
-32.598799999999997
 20
49.416699999999999
 30
0.0
 10
-32.667499999999997
 20
49.378599999999999
 30
0.0
 10
-32.7286
 20
49.320700000000002
 30
0.0
 10
-32.781799999999997
 20
49.242600000000003
 30
0.0
 10
-32.781799999999997
 20
49.242600000000003
 30
0.0
 10
-32.781799999999997
 20
49.242600000000003
 30
0.0
 10
-32.933700000000002
 20
49.3127
 30
0.0
 10
-32.933700000000002
 20
49.3127
 30
0.0
 10
-32.933700000000002
 20
49.3127
 30
0.0
 10
-32.933700000000002
 20
49.3127
 30
0.0
 10
-32.755899999999997
 20
50.306600000000003
 30
0.0
 10
-32.755899999999997
 20
50.306600000000003
 30
0.0
 10
-32.755899999999997
 20
50.306600000000003
 30
0.0
 10
-32.755899999999997
 20
50.306600000000003
 30
0.0
 10
-31.850899999999999
 20
50.306600000000003
 30
0.0
 10
-31.850899999999999
 20
50.306600000000003
 30
0.0
 10
-31.850899999999999
 20
50.306600000000003
 30
0.0
 10
-31.850899999999999
 20
50.306600000000003
 30
0.0
 10
-31.850899999999999
 20
50.109499999999997
 30
0.0
 10
-31.850899999999999
 20
50.109499999999997
 30
0.0
 10
-31.850899999999999
 20
50.109499999999997
 30
0.0
 10
-31.850899999999999
 20
50.109499999999997
 30
0.0
 10
-32.587499999999999
 20
50.109499999999997
 30
0.0
 10
-32.587499999999999
 20
50.109499999999997
 30
0.0
 10
-32.587499999999999
 20
50.109499999999997
 30
0.0
 10
-32.587499999999999
 20
50.109499999999997
 30
0.0
 10
-32.688200000000002
 20
49.549799999999998
 30
0.0
 10
-32.688200000000002
 20
49.549799999999998
 30
0.0
 10
-32.688200000000002
 20
49.549799999999998
 30
0.0
 10
-32.630299999999998
 20
49.591200000000001
 30
0.0
 10
-32.573399999999999
 20
49.621299999999998
 30
0.0
 10
-32.5169
 20
49.640099999999997
 30
0.0
 10
-32.5169
 20
49.640099999999997
 30
0.0
 10
-32.460000000000001
 20
49.658900000000003
 30
0.0
 10
-32.398899999999998
 20
49.668300000000002
 30
0.0
 10
-32.332999999999998
 20
49.668300000000002
 30
0.0
 10
-32.332999999999998
 20
49.668300000000002
 30
0.0
 10
-32.1374
 20
49.668300000000002
 30
0.0
 10
-31.977
 20
49.601999999999997
 30
0.0
 10
-31.851800000000001
 20
49.469799999999999
 30
0.0
 10
-31.851800000000001
 20
49.469799999999999
 30
0.0
 10
-31.7272
 20
49.337600000000002
 30
0.0
 10
-31.6646
 20
49.168799999999997
 30
0.0
 10
-31.6646
 20
48.962699999999998
 30
0.0
 10
-31.6646
 20
48.962699999999998
 30
0.0
 10
-31.6646
 20
48.768000000000001
 30
0.0
 10
-31.731400000000001
 20
48.602400000000003
 30
0.0
 10
-31.864999999999998
 20
48.465600000000002
 30
0.0
 10
-31.864999999999998
 20
48.465600000000002
 30
0.0
 10
-31.9986
 20
48.328699999999998
 30
0.0
 10
-32.160899999999998
 20
48.259999999999998
 30
0.0
 10
-32.350900000000003
 20
48.259999999999998
 30
0.0
 10
-32.350900000000003
 20
48.259999999999998
 30
0.0
 10
-32.531500000000001
 20
48.259999999999998
 30
0.0
 10
-32.686300000000003
 20
48.320700000000002
 30
0.0
 10
-32.813699999999997
 20
48.442500000000003
 30
0.0
 10
-32.813699999999997
 20
48.442500000000003
 30
0.0
 10
-32.941200000000002
 20
48.564300000000003
 30
0.0
 10
-33.012700000000002
 20
48.719999999999999
 30
0.0
 10
-33.027299999999997
 20
48.909100000000002
 30
0.0
  0
SPLINE
  5
42
100
AcDbEntity
  8
Layer 1
 62
    73
100
AcDbSpline
210
0.0
220
0.0
230
1.0
 70
     1
 71
     3
 72
    28
 73
    24
 74
     0
 42
0.0000000001
 43
0.0000000001
 40
0.0
 40
0.0
 40
0.0
 40
0.0
 40
0.1666666666666667
 40
0.1666666666666667
 40
0.1666666666666667
 40
0.1666666666666667
 40
0.3333333333333333
 40
0.3333333333333333
 40
0.3333333333333333
 40
0.3333333333333333
 40
0.5
 40
0.5
 40
0.5
 40
0.5
 40
0.6666666666666666
 40
0.6666666666666666
 40
0.6666666666666666
 40
0.6666666666666666
 40
0.8333333333333333
 40
0.8333333333333333
 40
0.8333333333333333
 40
0.8333333333333333
 40
1.0
 40
1.0
 40
1.0
 40
1.0
 10
-24.840699999999998
 20
49.144799999999996
 30
0.0
 10
-24.840699999999998
 20
49.144799999999996
 30
0.0
 10
-25.050000000000001
 20
49.144799999999996
 30
0.0
 10
-25.050000000000001
 20
49.144799999999996
 30
0.0
 10
-25.050000000000001
 20
49.144799999999996
 30
0.0
 10
-25.050000000000001
 20
49.144799999999996
 30
0.0
 10
-25.050000000000001
 20
50.979199999999999
 30
0.0
 10
-25.050000000000001
 20
50.979199999999999
 30
0.0
 10
-25.050000000000001
 20
50.979199999999999
 30
0.0
 10
-25.050000000000001
 20
50.979199999999999
 30
0.0
 10
-25.399899999999999
 20
50.979199999999999
 30
0.0
 10
-25.399899999999999
 20
50.979199999999999
 30
0.0
 10
-25.399899999999999
 20
50.979199999999999
 30
0.0
 10
-25.399899999999999
 20
50.979199999999999
 30
0.0
 10
-25.399899999999999
 20
51.151400000000002
 30
0.0
 10
-25.399899999999999
 20
51.151400000000002
 30
0.0
 10
-25.399899999999999
 20
51.151400000000002
 30
0.0
 10
-25.399899999999999
 20
51.151400000000002
 30
0.0
 10
-24.840699999999998
 20
51.151400000000002
 30
0.0
 10
-24.840699999999998
 20
51.151400000000002
 30
0.0
 10
-24.840699999999998
 20
51.151400000000002
 30
0.0
 10
-24.840699999999998
 20
51.151400000000002
 30
0.0
 10
-24.840699999999998
 20
49.144799999999996
 30
0.0
 10
-24.840699999999998
 20
49.144799999999996
 30
0.0
  0
SPLINE
  5
43
100
AcDbEntity
  8
Layer 1
 62
    73
100
AcDbSpline
210
0.0
220
0.0
230
1.0
 70
     1
 71
     3
 72
    96
 73
    92
 74
     0
 42
0.0000000001
 43
0.0000000001
 40
0.0
 40
0.0
 40
0.0
 40
0.0
 40
0.0434782608695652
 40
0.0434782608695652
 40
0.0434782608695652
 40
0.0434782608695652
 40
0.0869565217391304
 40
0.0869565217391304
 40
0.0869565217391304
 40
0.0869565217391304
 40
0.1304347826086957
 40
0.1304347826086957
 40
0.1304347826086957
 40
0.1304347826086957
 40
0.1739130434782609
 40
0.1739130434782609
 40
0.1739130434782609
 40
0.1739130434782609
 40
0.2173913043478261
 40
0.2173913043478261
 40
0.2173913043478261
 40
0.2173913043478261
 40
0.2608695652173913
 40
0.2608695652173913
 40
0.2608695652173913
 40
0.2608695652173913
 40
0.3043478260869565
 40
0.3043478260869565
 40
0.3043478260869565
 40
0.3043478260869565
 40
0.3478260869565217
 40
0.3478260869565217
 40
0.3478260869565217
 40
0.3478260869565217
 40
0.3913043478260869
 40
0.3913043478260869
 40
0.3913043478260869
 40
0.3913043478260869
 40
0.4347826086956521
 40
0.4347826086956521
 40
0.4347826086956521
 40
0.4347826086956521
 40
0.4782608695652173
 40
0.4782608695652173
 40
0.4782608695652173
 40
0.4782608695652173
 40
0.5217391304347825
 40
0.5217391304347825
 40
0.5217391304347825
 40
0.5217391304347825
 40
0.5652173913043477
 40
0.5652173913043477
 40
0.5652173913043477
 40
0.5652173913043477
 40
0.6086956521739129
 40
0.6086956521739129
 40
0.6086956521739129
 40
0.6086956521739129
 40
0.6521739130434781
 40
0.6521739130434781
 40
0.6521739130434781
 40
0.6521739130434781
 40
0.6956521739130432
 40
0.6956521739130432
 40
0.6956521739130432
 40
0.6956521739130432
 40
0.7391304347826084
 40
0.7391304347826084
 40
0.7391304347826084
 40
0.7391304347826084
 40
0.7826086956521736
 40
0.7826086956521736
 40
0.7826086956521736
 40
0.7826086956521736
 40
0.8260869565217388
 40
0.8260869565217388
 40
0.8260869565217388
 40
0.8260869565217388
 40
0.869565217391304
 40
0.869565217391304
 40
0.869565217391304
 40
0.869565217391304
 40
0.9130434782608692
 40
0.9130434782608692
 40
0.9130434782608692
 40
0.9130434782608692
 40
0.9565217391304344
 40
0.9565217391304344
 40
0.9565217391304344
 40
0.9565217391304344
 40
1.0
 40
1.0
 40
1.0
 40
1.0
 10
-24.061800000000002
 20
49.753900000000002
 30
0.0
 10
-24.061800000000002
 20
49.753900000000002
 30
0.0
 10
-23.861899999999999
 20
49.753900000000002
 30
0.0
 10
-23.861899999999999
 20
49.753900000000002
 30
0.0
 10
-23.861899999999999
 20
49.753900000000002
 30
0.0
 10
-23.854399999999998
 20
49.623600000000003
 30
0.0
 10
-23.803599999999999
 20
49.512599999999999
 30
0.0
 10
-23.709
 20
49.421799999999998
 30
0.0
 10
-23.709
 20
49.421799999999998
 30
0.0
 10
-23.6145
 20
49.331099999999999
 30
0.0
 10
-23.5044
 20
49.285400000000003
 30
0.0
 10
-23.378299999999999
 20
49.285400000000003
 30
0.0
 10
-23.378299999999999
 20
49.285400000000003
 30
0.0
 10
-23.243400000000001
 20
49.285400000000003
 30
0.0
 10
-23.129100000000001
 20
49.336199999999998
 30
0.0
 10
-23.035900000000002
 20
49.437800000000003
 30
0.0
 10
-23.035900000000002
 20
49.437800000000003
 30
0.0
 10
-22.942799999999998
 20
49.539000000000001
 30
0.0
 10
-22.8962
 20
49.6646
 30
0.0
 10
-22.8962
 20
49.813200000000002
 30
0.0
 10
-22.8962
 20
49.813200000000002
 30
0.0
 10
-22.8962
 20
49.963700000000003
 30
0.0
 10
-22.942799999999998
 20
50.085500000000003
 30
0.0
 10
-23.035900000000002
 20
50.179099999999998
 30
0.0
 10
-23.035900000000002
 20
50.179099999999998
 30
0.0
 10
-23.129100000000001
 20
50.272300000000001
 30
0.0
 10
-23.251300000000001
 20
50.318800000000003
 30
0.0
 10
-23.401900000000001
 20
50.318800000000003
 30
0.0
 10
-23.401900000000001
 20
50.318800000000003
 30
0.0
 10
-23.486999999999998
 20
50.318800000000003
 30
0.0
 10
-23.5641
 20
50.299599999999998
 30
0.0
 10
-23.633299999999998
 20
50.261499999999998
 30
0.0
 10
-23.633299999999998
 20
50.261499999999998
 30
0.0
 10
-23.702000000000002
 20
50.223399999999998
 30
0.0
 10
-23.763100000000001
 20
50.165500000000002
 30
0.0
 10
-23.816299999999998
 20
50.087400000000002
 30
0.0
 10
-23.816299999999998
 20
50.087400000000002
 30
0.0
 10
-23.816299999999998
 20
50.087400000000002
 30
0.0
 10
-23.9682
 20
50.157499999999999
 30
0.0
 10
-23.9682
 20
50.157499999999999
 30
0.0
 10
-23.9682
 20
50.157499999999999
 30
0.0
 10
-23.9682
 20
50.157499999999999
 30
0.0
 10
-23.790400000000002
 20
51.151400000000002
 30
0.0
 10
-23.790400000000002
 20
51.151400000000002
 30
0.0
 10
-23.790400000000002
 20
51.151400000000002
 30
0.0
 10
-23.790400000000002
 20
51.151400000000002
 30
0.0
 10
-22.885400000000001
 20
51.151400000000002
 30
0.0
 10
-22.885400000000001
 20
51.151400000000002
 30
0.0
 10
-22.885400000000001
 20
51.151400000000002
 30
0.0
 10
-22.885400000000001
 20
51.151400000000002
 30
0.0
 10
-22.885400000000001
 20
50.954300000000003
 30
0.0
 10
-22.885400000000001
 20
50.954300000000003
 30
0.0
 10
-22.885400000000001
 20
50.954300000000003
 30
0.0
 10
-22.885400000000001
 20
50.954300000000003
 30
0.0
 10
-23.622
 20
50.954300000000003
 30
0.0
 10
-23.622
 20
50.954300000000003
 30
0.0
 10
-23.622
 20
50.954300000000003
 30
0.0
 10
-23.622
 20
50.954300000000003
 30
0.0
 10
-23.7227
 20
50.394599999999997
 30
0.0
 10
-23.7227
 20
50.394599999999997
 30
0.0
 10
-23.7227
 20
50.394599999999997
 30
0.0
 10
-23.6648
 20
50.436
 30
0.0
 10
-23.607900000000001
 20
50.466099999999997
 30
0.0
 10
-23.551400000000001
 20
50.484900000000003
 30
0.0
 10
-23.551400000000001
 20
50.484900000000003
 30
0.0
 10
-23.494499999999999
 20
50.503700000000002
 30
0.0
 10
-23.433399999999999
 20
50.513100000000001
 30
0.0
 10
-23.3675
 20
50.513100000000001
 30
0.0
 10
-23.3675
 20
50.513100000000001
 30
0.0
 10
-23.171900000000001
 20
50.513100000000001
 30
0.0
 10
-23.011500000000002
 20
50.446800000000003
 30
0.0
 10
-22.886299999999999
 20
50.314599999999999
 30
0.0
 10
-22.886299999999999
 20
50.314599999999999
 30
0.0
 10
-22.761700000000001
 20
50.182400000000001
 30
0.0
 10
-22.699100000000001
 20
50.013599999999997
 30
0.0
 10
-22.699100000000001
 20
49.807499999999997
 30
0.0
 10
-22.699100000000001
 20
49.807499999999997
 30
0.0
 10
-22.699100000000001
 20
49.6128
 30
0.0
 10
-22.765899999999998
 20
49.447200000000002
 30
0.0
 10
-22.8995
 20
49.310400000000001
 30
0.0
 10
-22.8995
 20
49.310400000000001
 30
0.0
 10
-23.033100000000001
 20
49.173499999999997
 30
0.0
 10
-23.195399999999999
 20
49.104799999999997
 30
0.0
 10
-23.385400000000001
 20
49.104799999999997
 30
0.0
 10
-23.385400000000001
 20
49.104799999999997
 30
0.0
 10
-23.565999999999999
 20
49.104799999999997
 30
0.0
 10
-23.720800000000001
 20
49.165500000000002
 30
0.0
 10
-23.848199999999999
 20
49.287300000000002
 30
0.0
 10
-23.848199999999999
 20
49.287300000000002
 30
0.0
 10
-23.9757
 20
49.409100000000002
 30
0.0
 10
-24.0472
 20
49.564799999999998
 30
0.0
 10
-24.061800000000002
 20
49.753900000000002
 30
0.0
  0
SPLINE
  5
44
100
AcDbEntity
  8
Layer 1
 62
    73
100
AcDbSpline
210
0.0
220
0.0
230
1.0
 70
     1
 71
     3
 72
    96
 73
    92
 74
     0
 42
0.0000000001
 43
0.0000000001
 40
0.0
 40
0.0
 40
0.0
 40
0.0
 40
0.0434782608695652
 40
0.0434782608695652
 40
0.0434782608695652
 40
0.0434782608695652
 40
0.0869565217391304
 40
0.0869565217391304
 40
0.0869565217391304
 40
0.0869565217391304
 40
0.1304347826086957
 40
0.1304347826086957
 40
0.1304347826086957
 40
0.1304347826086957
 40
0.1739130434782609
 40
0.1739130434782609
 40
0.1739130434782609
 40
0.1739130434782609
 40
0.2173913043478261
 40
0.2173913043478261
 40
0.2173913043478261
 40
0.2173913043478261
 40
0.2608695652173913
 40
0.2608695652173913
 40
0.2608695652173913
 40
0.2608695652173913
 40
0.3043478260869565
 40
0.3043478260869565
 40
0.3043478260869565
 40
0.3043478260869565
 40
0.3478260869565217
 40
0.3478260869565217
 40
0.3478260869565217
 40
0.3478260869565217
 40
0.3913043478260869
 40
0.3913043478260869
 40
0.3913043478260869
 40
0.3913043478260869
 40
0.4347826086956521
 40
0.4347826086956521
 40
0.4347826086956521
 40
0.4347826086956521
 40
0.4782608695652173
 40
0.4782608695652173
 40
0.4782608695652173
 40
0.4782608695652173
 40
0.5217391304347825
 40
0.5217391304347825
 40
0.5217391304347825
 40
0.5217391304347825
 40
0.5652173913043477
 40
0.5652173913043477
 40
0.5652173913043477
 40
0.5652173913043477
 40
0.6086956521739129
 40
0.6086956521739129
 40
0.6086956521739129
 40
0.6086956521739129
 40
0.6521739130434781
 40
0.6521739130434781
 40
0.6521739130434781
 40
0.6521739130434781
 40
0.6956521739130432
 40
0.6956521739130432
 40
0.6956521739130432
 40
0.6956521739130432
 40
0.7391304347826084
 40
0.7391304347826084
 40
0.7391304347826084
 40
0.7391304347826084
 40
0.7826086956521736
 40
0.7826086956521736
 40
0.7826086956521736
 40
0.7826086956521736
 40
0.8260869565217388
 40
0.8260869565217388
 40
0.8260869565217388
 40
0.8260869565217388
 40
0.869565217391304
 40
0.869565217391304
 40
0.869565217391304
 40
0.869565217391304
 40
0.9130434782608692
 40
0.9130434782608692
 40
0.9130434782608692
 40
0.9130434782608692
 40
0.9565217391304344
 40
0.9565217391304344
 40
0.9565217391304344
 40
0.9565217391304344
 40
1.0
 40
1.0
 40
1.0
 40
1.0
 10
-22.467300000000002
 20
49.753900000000002
 30
0.0
 10
-22.467300000000002
 20
49.753900000000002
 30
0.0
 10
-22.267399999999999
 20
49.753900000000002
 30
0.0
 10
-22.267399999999999
 20
49.753900000000002
 30
0.0
 10
-22.267399999999999
 20
49.753900000000002
 30
0.0
 10
-22.259899999999998
 20
49.623600000000003
 30
0.0
 10
-22.209099999999999
 20
49.512599999999999
 30
0.0
 10
-22.1145
 20
49.421799999999998
 30
0.0
 10
-22.1145
 20
49.421799999999998
 30
0.0
 10
-22.02
 20
49.331099999999999
 30
0.0
 10
-21.9099
 20
49.285400000000003
 30
0.0
 10
-21.783799999999999
 20
49.285400000000003
 30
0.0
 10
-21.783799999999999
 20
49.285400000000003
 30
0.0
 10
-21.648900000000001
 20
49.285400000000003
 30
0.0
 10
-21.534600000000001
 20
49.336199999999998
 30
0.0
 10
-21.441400000000002
 20
49.437800000000003
 30
0.0
 10
-21.441400000000002
 20
49.437800000000003
 30
0.0
 10
-21.348299999999998
 20
49.539000000000001
 30
0.0
 10
-21.3017
 20
49.6646
 30
0.0
 10
-21.3017
 20
49.813200000000002
 30
0.0
 10
-21.3017
 20
49.813200000000002
 30
0.0
 10
-21.3017
 20
49.963700000000003
 30
0.0
 10
-21.348299999999998
 20
50.085500000000003
 30
0.0
 10
-21.441400000000002
 20
50.179099999999998
 30
0.0
 10
-21.441400000000002
 20
50.179099999999998
 30
0.0
 10
-21.534600000000001
 20
50.272300000000001
 30
0.0
 10
-21.6568
 20
50.318800000000003
 30
0.0
 10
-21.807400000000001
 20
50.318800000000003
 30
0.0
 10
-21.807400000000001
 20
50.318800000000003
 30
0.0
 10
-21.892499999999998
 20
50.318800000000003
 30
0.0
 10
-21.9696
 20
50.299599999999998
 30
0.0
 10
-22.038799999999998
 20
50.261499999999998
 30
0.0
 10
-22.038799999999998
 20
50.261499999999998
 30
0.0
 10
-22.107500000000002
 20
50.223399999999998
 30
0.0
 10
-22.168600000000001
 20
50.165500000000002
 30
0.0
 10
-22.221800000000002
 20
50.087400000000002
 30
0.0
 10
-22.221800000000002
 20
50.087400000000002
 30
0.0
 10
-22.221800000000002
 20
50.087400000000002
 30
0.0
 10
-22.373699999999999
 20
50.157499999999999
 30
0.0
 10
-22.373699999999999
 20
50.157499999999999
 30
0.0
 10
-22.373699999999999
 20
50.157499999999999
 30
0.0
 10
-22.373699999999999
 20
50.157499999999999
 30
0.0
 10
-22.195900000000002
 20
51.151400000000002
 30
0.0
 10
-22.195900000000002
 20
51.151400000000002
 30
0.0
 10
-22.195900000000002
 20
51.151400000000002
 30
0.0
 10
-22.195900000000002
 20
51.151400000000002
 30
0.0
 10
-21.290900000000001
 20
51.151400000000002
 30
0.0
 10
-21.290900000000001
 20
51.151400000000002
 30
0.0
 10
-21.290900000000001
 20
51.151400000000002
 30
0.0
 10
-21.290900000000001
 20
51.151400000000002
 30
0.0
 10
-21.290900000000001
 20
50.954300000000003
 30
0.0
 10
-21.290900000000001
 20
50.954300000000003
 30
0.0
 10
-21.290900000000001
 20
50.954300000000003
 30
0.0
 10
-21.290900000000001
 20
50.954300000000003
 30
0.0
 10
-22.0275
 20
50.954300000000003
 30
0.0
 10
-22.0275
 20
50.954300000000003
 30
0.0
 10
-22.0275
 20
50.954300000000003
 30
0.0
 10
-22.0275
 20
50.954300000000003
 30
0.0
 10
-22.1282
 20
50.394599999999997
 30
0.0
 10
-22.1282
 20
50.394599999999997
 30
0.0
 10
-22.1282
 20
50.394599999999997
 30
0.0
 10
-22.0703
 20
50.436
 30
0.0
 10
-22.013400000000001
 20
50.466099999999997
 30
0.0
 10
-21.956900000000001
 20
50.484900000000003
 30
0.0
 10
-21.956900000000001
 20
50.484900000000003
 30
0.0
 10
-21.899999999999999
 20
50.503700000000002
 30
0.0
 10
-21.838899999999999
 20
50.513100000000001
 30
0.0
 10
-21.773
 20
50.513100000000001
 30
0.0
 10
-21.773
 20
50.513100000000001
 30
0.0
 10
-21.577400000000001
 20
50.513100000000001
 30
0.0
 10
-21.417000000000002
 20
50.446800000000003
 30
0.0
 10
-21.291799999999999
 20
50.314599999999999
 30
0.0
 10
-21.291799999999999
 20
50.314599999999999
 30
0.0
 10
-21.167200000000001
 20
50.182400000000001
 30
0.0
 10
-21.104600000000001
 20
50.013599999999997
 30
0.0
 10
-21.104600000000001
 20
49.807499999999997
 30
0.0
 10
-21.104600000000001
 20
49.807499999999997
 30
0.0
 10
-21.104600000000001
 20
49.6128
 30
0.0
 10
-21.171399999999998
 20
49.447200000000002
 30
0.0
 10
-21.305
 20
49.310400000000001
 30
0.0
 10
-21.305
 20
49.310400000000001
 30
0.0
 10
-21.438600000000001
 20
49.173499999999997
 30
0.0
 10
-21.600899999999999
 20
49.104799999999997
 30
0.0
 10
-21.790900000000001
 20
49.104799999999997
 30
0.0
 10
-21.790900000000001
 20
49.104799999999997
 30
0.0
 10
-21.971499999999999
 20
49.104799999999997
 30
0.0
 10
-22.126300000000001
 20
49.165500000000002
 30
0.0
 10
-22.253699999999998
 20
49.287300000000002
 30
0.0
 10
-22.253699999999998
 20
49.287300000000002
 30
0.0
 10
-22.3812
 20
49.409100000000002
 30
0.0
 10
-22.4527
 20
49.564799999999998
 30
0.0
 10
-22.467300000000002
 20
49.753900000000002
 30
0.0
  0
SPLINE
  5
45
100
AcDbEntity
  8
Layer 1
 62
     3
100
AcDbSpline
210
0.0
220
0.0
230
1.0
 70
     1
 71
     3
 72
    28
 73
    24
 74
     0
 42
0.0000000001
 43
0.0000000001
 40
0.0
 40
0.0
 40
0.0
 40
0.0
 40
0.1666666666666667
 40
0.1666666666666667
 40
0.1666666666666667
 40
0.1666666666666667
 40
0.3333333333333333
 40
0.3333333333333333
 40
0.3333333333333333
 40
0.3333333333333333
 40
0.5
 40
0.5
 40
0.5
 40
0.5
 40
0.6666666666666666
 40
0.6666666666666666
 40
0.6666666666666666
 40
0.6666666666666666
 40
0.8333333333333333
 40
0.8333333333333333
 40
0.8333333333333333
 40
0.8333333333333333
 40
1.0
 40
1.0
 40
1.0
 40
1.0
 10
-17.237500000000001
 20
47.877600000000001
 30
0.0
 10
-17.237500000000001
 20
47.877600000000001
 30
0.0
 10
-17.4468
 20
47.877600000000001
 30
0.0
 10
-17.4468
 20
47.877600000000001
 30
0.0
 10
-17.4468
 20
47.877600000000001
 30
0.0
 10
-17.4468
 20
47.877600000000001
 30
0.0
 10
-17.4468
 20
49.712000000000003
 30
0.0
 10
-17.4468
 20
49.712000000000003
 30
0.0
 10
-17.4468
 20
49.712000000000003
 30
0.0
 10
-17.4468
 20
49.712000000000003
 30
0.0
 10
-17.796700000000001
 20
49.712000000000003
 30
0.0
 10
-17.796700000000001
 20
49.712000000000003
 30
0.0
 10
-17.796700000000001
 20
49.712000000000003
 30
0.0
 10
-17.796700000000001
 20
49.712000000000003
 30
0.0
 10
-17.796700000000001
 20
49.8842
 30
0.0
 10
-17.796700000000001
 20
49.8842
 30
0.0
 10
-17.796700000000001
 20
49.8842
 30
0.0
 10
-17.796700000000001
 20
49.8842
 30
0.0
 10
-17.237500000000001
 20
49.8842
 30
0.0
 10
-17.237500000000001
 20
49.8842
 30
0.0
 10
-17.237500000000001
 20
49.8842
 30
0.0
 10
-17.237500000000001
 20
49.8842
 30
0.0
 10
-17.237500000000001
 20
47.877600000000001
 30
0.0
 10
-17.237500000000001
 20
47.877600000000001
 30
0.0
  0
SPLINE
  5
46
100
AcDbEntity
  8
Layer 1
 62
     3
100
AcDbSpline
210
0.0
220
0.0
230
1.0
 70
     1
 71
     3
 72
   132
 73
   128
 74
     0
 42
0.0000000001
 43
0.0000000001
 40
0.0
 40
0.0
 40
0.0
 40
0.0
 40
0.03125
 40
0.03125
 40
0.03125
 40
0.03125
 40
0.0625
 40
0.0625
 40
0.0625
 40
0.0625
 40
0.09375
 40
0.09375
 40
0.09375
 40
0.09375
 40
0.125
 40
0.125
 40
0.125
 40
0.125
 40
0.15625
 40
0.15625
 40
0.15625
 40
0.15625
 40
0.1875
 40
0.1875
 40
0.1875
 40
0.1875
 40
0.21875
 40
0.21875
 40
0.21875
 40
0.21875
 40
0.25
 40
0.25
 40
0.25
 40
0.25
 40
0.28125
 40
0.28125
 40
0.28125
 40
0.28125
 40
0.3125
 40
0.3125
 40
0.3125
 40
0.3125
 40
0.34375
 40
0.34375
 40
0.34375
 40
0.34375
 40
0.375
 40
0.375
 40
0.375
 40
0.375
 40
0.40625
 40
0.40625
 40
0.40625
 40
0.40625
 40
0.4375
 40
0.4375
 40
0.4375
 40
0.4375
 40
0.46875
 40
0.46875
 40
0.46875
 40
0.46875
 40
0.5
 40
0.5
 40
0.5
 40
0.5
 40
0.53125
 40
0.53125
 40
0.53125
 40
0.53125
 40
0.5625
 40
0.5625
 40
0.5625
 40
0.5625
 40
0.59375
 40
0.59375
 40
0.59375
 40
0.59375
 40
0.625
 40
0.625
 40
0.625
 40
0.625
 40
0.65625
 40
0.65625
 40
0.65625
 40
0.65625
 40
0.6875
 40
0.6875
 40
0.6875
 40
0.6875
 40
0.71875
 40
0.71875
 40
0.71875
 40
0.71875
 40
0.75
 40
0.75
 40
0.75
 40
0.75
 40
0.78125
 40
0.78125
 40
0.78125
 40
0.78125
 40
0.8125
 40
0.8125
 40
0.8125
 40
0.8125
 40
0.84375
 40
0.84375
 40
0.84375
 40
0.84375
 40
0.875
 40
0.875
 40
0.875
 40
0.875
 40
0.90625
 40
0.90625
 40
0.90625
 40
0.90625
 40
0.9375
 40
0.9375
 40
0.9375
 40
0.9375
 40
0.96875
 40
0.96875
 40
0.96875
 40
0.96875
 40
1.0
 40
1.0
 40
1.0
 40
1.0
 10
-16.224299999999999
 20
48.486699999999999
 30
0.0
 10
-16.224299999999999
 20
48.486699999999999
 30
0.0
 10
-16.224299999999999
 20
48.470300000000002
 30
0.0
 10
-16.224299999999999
 20
48.470300000000002
 30
0.0
 10
-16.224299999999999
 20
48.470300000000002
 30
0.0
 10
-16.224299999999999
 20
48.337600000000002
 30
0.0
 10
-16.183399999999999
 20
48.228000000000002
 30
0.0
 10
-16.101099999999999
 20
48.140500000000003
 30
0.0
 10
-16.101099999999999
 20
48.140500000000003
 30
0.0
 10
-16.018799999999999
 20
48.0535
 30
0.0
 10
-15.917199999999999
 20
48.009799999999998
 30
0.0
 10
-15.7958
 20
48.009799999999998
 30
0.0
 10
-15.7958
 20
48.009799999999998
 30
0.0
 10
-15.6646
 20
48.009799999999998
 30
0.0
 10
-15.5564
 20
48.052999999999997
 30
0.0
 10
-15.471299999999999
 20
48.140099999999997
 30
0.0
 10
-15.471299999999999
 20
48.140099999999997
 30
0.0
 10
-15.386200000000001
 20
48.2271
 30
0.0
 10
-15.3438
 20
48.337600000000002
 30
0.0
 10
-15.3438
 20
48.473100000000002
 30
0.0
 10
-15.3438
 20
48.473100000000002
 30
0.0
 10
-15.3438
 20
48.626399999999997
 30
0.0
 10
-15.388999999999999
 20
48.743099999999998
 30
0.0
 10
-15.4788
 20
48.822600000000001
 30
0.0
 10
-15.4788
 20
48.822600000000001
 30
0.0
 10
-15.5687
 20
48.902099999999997
 30
0.0
 10
-15.700799999999999
 20
48.941600000000001
 30
0.0
 10
-15.8744
 20
48.941600000000001
 30
0.0
 10
-15.8744
 20
48.941600000000001
 30
0.0
 10
-15.898899999999999
 20
48.941600000000001
 30
0.0
 10
-15.918100000000001
 20
48.941600000000001
 30
0.0
 10
-15.9313
 20
48.941099999999999
 30
0.0
 10
-15.9313
 20
48.941099999999999
 30
0.0
 10
-15.944900000000001
 20
48.940600000000003
 30
0.0
 10
-15.956200000000001
 20
48.939700000000002
 30
0.0
 10
-15.9666
 20
48.938699999999997
 30
0.0
 10
-15.9666
 20
48.938699999999997
 30
0.0
 10
-15.9666
 20
48.938699999999997
 30
0.0
 10
-15.9666
 20
49.105699999999999
 30
0.0
 10
-15.9666
 20
49.105699999999999
 30
0.0
 10
-15.9666
 20
49.105699999999999
 30
0.0
 10
-15.956200000000001
 20
49.104799999999997
 30
0.0
 10
-15.945399999999999
 20
49.1038
 30
0.0
 10
-15.9337
 20
49.103400000000001
 30
0.0
 10
-15.9337
 20
49.103400000000001
 30
0.0
 10
-15.9214
 20
49.102899999999998
 30
0.0
 10
-15.903600000000001
 20
49.102899999999998
 30
0.0
 10
-15.8796
 20
49.102899999999998
 30
0.0
 10
-15.8796
 20
49.102899999999998
 30
0.0
 10
-15.747400000000001
 20
49.102899999999998
 30
0.0
 10
-15.648099999999999
 20
49.130200000000002
 30
0.0
 10
-15.5814
 20
49.184699999999999
 30
0.0
 10
-15.5814
 20
49.184699999999999
 30
0.0
 10
-15.515000000000001
 20
49.239800000000002
 30
0.0
 10
-15.4816
 20
49.321199999999997
 30
0.0
 10
-15.4816
 20
49.429299999999998
 30
0.0
 10
-15.4816
 20
49.429299999999998
 30
0.0
 10
-15.4816
 20
49.523400000000002
 30
0.0
 10
-15.510300000000001
 20
49.6006
 30
0.0
 10
-15.5672
 20
49.661200000000001
 30
0.0
 10
-15.5672
 20
49.661200000000001
 30
0.0
 10
-15.6242
 20
49.721899999999998
 30
0.0
 10
-15.6957
 20
49.752000000000002
 30
0.0
 10
-15.781700000000001
 20
49.752000000000002
 30
0.0
 10
-15.781700000000001
 20
49.752000000000002
 30
0.0
 10
-15.880000000000001
 20
49.752000000000002
 30
0.0
 10
-15.9572
 20
49.7224
 30
0.0
 10
-16.013200000000001
 20
49.6631
 30
0.0
 10
-16.013200000000001
 20
49.6631
 30
0.0
 10
-16.069600000000001
 20
49.6038
 30
0.0
 10
-16.098299999999998
 20
49.521099999999997
 30
0.0
 10
-16.100200000000001
 20
49.414299999999997
 30
0.0
 10
-16.100200000000001
 20
49.414299999999997
 30
0.0
 10
-16.100200000000001
 20
49.414299999999997
 30
0.0
 10
-16.2836
 20
49.414299999999997
 30
0.0
 10
-16.2836
 20
49.414299999999997
 30
0.0
 10
-16.2836
 20
49.414299999999997
 30
0.0
 10
-16.275099999999998
 20
49.570399999999999
 30
0.0
 10
-16.225300000000001
 20
49.694600000000001
 30
0.0
 10
-16.133600000000001
 20
49.786299999999997
 30
0.0
 10
-16.133600000000001
 20
49.786299999999997
 30
0.0
 10
-16.041399999999999
 20
49.878100000000003
 30
0.0
 10
-15.920999999999999
 20
49.924199999999999
 30
0.0
 10
-15.7723
 20
49.924199999999999
 30
0.0
 10
-15.7723
 20
49.924199999999999
 30
0.0
 10
-15.635400000000001
 20
49.924199999999999
 30
0.0
 10
-15.518800000000001
 20
49.8752
 30
0.0
 10
-15.422800000000001
 20
49.7774
 30
0.0
 10
-15.422800000000001
 20
49.7774
 30
0.0
 10
-15.3269
 20
49.679600000000001
 30
0.0
 10
-15.2789
 20
49.563400000000001
 30
0.0
 10
-15.2789
 20
49.429299999999998
 30
0.0
 10
-15.2789
 20
49.429299999999998
 30
0.0
 10
-15.2789
 20
49.349400000000003
 30
0.0
 10
-15.2944
 20
49.279800000000002
 30
0.0
 10
-15.324999999999999
 20
49.220500000000001
 30
0.0
 10
-15.324999999999999
 20
49.220500000000001
 30
0.0
 10
-15.3561
 20
49.161200000000001
 30
0.0
 10
-15.4054
 20
49.107100000000003
 30
0.0
 10
-15.4732
 20
49.057299999999998
 30
0.0
 10
-15.4732
 20
49.057299999999998
 30
0.0
 10
-15.364000000000001
 20
48.999400000000001
 30
0.0
 10
-15.281700000000001
 20
48.923699999999997
 30
0.0
 10
-15.226699999999999
 20
48.8292
 30
0.0
 10
-15.226699999999999
 20
48.8292
 30
0.0
 10
-15.1717
 20
48.735100000000003
 30
0.0
 10
-15.1439
 20
48.622700000000002
 30
0.0
 10
-15.1439
 20
48.492400000000004
 30
0.0
 10
-15.1439
 20
48.492400000000004
 30
0.0
 10
-15.1439
 20
48.307499999999997
 30
0.0
 10
-15.204599999999999
 20
48.152299999999997
 30
0.0
 10
-15.3264
 20
48.026200000000003
 30
0.0
 10
-15.3264
 20
48.026200000000003
 30
0.0
 10
-15.4482
 20
47.900599999999997
 30
0.0
 10
-15.601100000000001
 20
47.837600000000002
 30
0.0
 10
-15.784599999999999
 20
47.837600000000002
 30
0.0
 10
-15.784599999999999
 20
47.837600000000002
 30
0.0
 10
-15.980700000000001
 20
47.837600000000002
 30
0.0
 10
-16.135400000000001
 20
47.895499999999998
 30
0.0
 10
-16.249300000000002
 20
48.011200000000002
 30
0.0
 10
-16.249300000000002
 20
48.011200000000002
 30
0.0
 10
-16.363099999999999
 20
48.126899999999999
 30
0.0
 10
-16.421399999999998
 20
48.285400000000003
 30
0.0
 10
-16.424299999999999
 20
48.486699999999999
 30
0.0
 10
-16.424299999999999
 20
48.486699999999999
 30
0.0
 10
-16.424299999999999
 20
48.486699999999999
 30
0.0
 10
-16.224299999999999
 20
48.486699999999999
 30
0.0
 10
-16.224299999999999
 20
48.486699999999999
 30
0.0
  0
SPLINE
  5
47
100
AcDbEntity
  8
Layer 1
 62
     3
100
AcDbSpline
210
0.0
220
0.0
230
1.0
 70
     1
 71
     3
 72
    96
 73
    92
 74
     0
 42
0.0000000001
 43
0.0000000001
 40
0.0
 40
0.0
 40
0.0
 40
0.0
 40
0.0434782608695652
 40
0.0434782608695652
 40
0.0434782608695652
 40
0.0434782608695652
 40
0.0869565217391304
 40
0.0869565217391304
 40
0.0869565217391304
 40
0.0869565217391304
 40
0.1304347826086957
 40
0.1304347826086957
 40
0.1304347826086957
 40
0.1304347826086957
 40
0.1739130434782609
 40
0.1739130434782609
 40
0.1739130434782609
 40
0.1739130434782609
 40
0.2173913043478261
 40
0.2173913043478261
 40
0.2173913043478261
 40
0.2173913043478261
 40
0.2608695652173913
 40
0.2608695652173913
 40
0.2608695652173913
 40
0.2608695652173913
 40
0.3043478260869565
 40
0.3043478260869565
 40
0.3043478260869565
 40
0.3043478260869565
 40
0.3478260869565217
 40
0.3478260869565217
 40
0.3478260869565217
 40
0.3478260869565217
 40
0.3913043478260869
 40
0.3913043478260869
 40
0.3913043478260869
 40
0.3913043478260869
 40
0.4347826086956521
 40
0.4347826086956521
 40
0.4347826086956521
 40
0.4347826086956521
 40
0.4782608695652173
 40
0.4782608695652173
 40
0.4782608695652173
 40
0.4782608695652173
 40
0.5217391304347825
 40
0.5217391304347825
 40
0.5217391304347825
 40
0.5217391304347825
 40
0.5652173913043477
 40
0.5652173913043477
 40
0.5652173913043477
 40
0.5652173913043477
 40
0.6086956521739129
 40
0.6086956521739129
 40
0.6086956521739129
 40
0.6086956521739129
 40
0.6521739130434781
 40
0.6521739130434781
 40
0.6521739130434781
 40
0.6521739130434781
 40
0.6956521739130432
 40
0.6956521739130432
 40
0.6956521739130432
 40
0.6956521739130432
 40
0.7391304347826084
 40
0.7391304347826084
 40
0.7391304347826084
 40
0.7391304347826084
 40
0.7826086956521736
 40
0.7826086956521736
 40
0.7826086956521736
 40
0.7826086956521736
 40
0.8260869565217388
 40
0.8260869565217388
 40
0.8260869565217388
 40
0.8260869565217388
 40
0.869565217391304
 40
0.869565217391304
 40
0.869565217391304
 40
0.869565217391304
 40
0.9130434782608692
 40
0.9130434782608692
 40
0.9130434782608692
 40
0.9130434782608692
 40
0.9565217391304344
 40
0.9565217391304344
 40
0.9565217391304344
 40
0.9565217391304344
 40
1.0
 40
1.0
 40
1.0
 40
1.0
 10
-14.864100000000001
 20
48.486699999999999
 30
0.0
 10
-14.864100000000001
 20
48.486699999999999
 30
0.0
 10
-14.664199999999999
 20
48.486699999999999
 30
0.0
 10
-14.664199999999999
 20
48.486699999999999
 30
0.0
 10
-14.664199999999999
 20
48.486699999999999
 30
0.0
 10
-14.656700000000001
 20
48.356400000000001
 30
0.0
 10
-14.6059
 20
48.245399999999997
 30
0.0
 10
-14.5113
 20
48.154600000000002
 30
0.0
 10
-14.5113
 20
48.154600000000002
 30
0.0
 10
-14.4168
 20
48.063899999999997
 30
0.0
 10
-14.306699999999999
 20
48.0182
 30
0.0
 10
-14.1806
 20
48.0182
 30
0.0
 10
-14.1806
 20
48.0182
 30
0.0
 10
-14.0457
 20
48.0182
 30
0.0
 10
-13.9314
 20
48.069000000000003
 30
0.0
 10
-13.838200000000001
 20
48.1706
 30
0.0
 10
-13.838200000000001
 20
48.1706
 30
0.0
 10
-13.745100000000001
 20
48.271799999999999
 30
0.0
 10
-13.698499999999999
 20
48.397399999999998
 30
0.0
 10
-13.698499999999999
 20
48.545999999999999
 30
0.0
 10
-13.698499999999999
 20
48.545999999999999
 30
0.0
 10
-13.698499999999999
 20
48.6965
 30
0.0
 10
-13.745100000000001
 20
48.818300000000001
 30
0.0
 10
-13.838200000000001
 20
48.911900000000003
 30
0.0
 10
-13.838200000000001
 20
48.911900000000003
 30
0.0
 10
-13.9314
 20
49.005099999999999
 30
0.0
 10
-14.053599999999999
 20
49.051600000000001
 30
0.0
 10
-14.2042
 20
49.051600000000001
 30
0.0
 10
-14.2042
 20
49.051600000000001
 30
0.0
 10
-14.289300000000001
 20
49.051600000000001
 30
0.0
 10
-14.366400000000001
 20
49.032400000000003
 30
0.0
 10
-14.435600000000001
 20
48.994300000000003
 30
0.0
 10
-14.435600000000001
 20
48.994300000000003
 30
0.0
 10
-14.504300000000001
 20
48.956200000000003
 30
0.0
 10
-14.5654
 20
48.898299999999999
 30
0.0
 10
-14.618600000000001
 20
48.8202
 30
0.0
 10
-14.618600000000001
 20
48.8202
 30
0.0
 10
-14.618600000000001
 20
48.8202
 30
0.0
 10
-14.7705
 20
48.890300000000003
 30
0.0
 10
-14.7705
 20
48.890300000000003
 30
0.0
 10
-14.7705
 20
48.890300000000003
 30
0.0
 10
-14.7705
 20
48.890300000000003
 30
0.0
 10
-14.592700000000001
 20
49.8842
 30
0.0
 10
-14.592700000000001
 20
49.8842
 30
0.0
 10
-14.592700000000001
 20
49.8842
 30
0.0
 10
-14.592700000000001
 20
49.8842
 30
0.0
 10
-13.6877
 20
49.8842
 30
0.0
 10
-13.6877
 20
49.8842
 30
0.0
 10
-13.6877
 20
49.8842
 30
0.0
 10
-13.6877
 20
49.8842
 30
0.0
 10
-13.6877
 20
49.687100000000001
 30
0.0
 10
-13.6877
 20
49.687100000000001
 30
0.0
 10
-13.6877
 20
49.687100000000001
 30
0.0
 10
-13.6877
 20
49.687100000000001
 30
0.0
 10
-14.424300000000001
 20
49.687100000000001
 30
0.0
 10
-14.424300000000001
 20
49.687100000000001
 30
0.0
 10
-14.424300000000001
 20
49.687100000000001
 30
0.0
 10
-14.424300000000001
 20
49.687100000000001
 30
0.0
 10
-14.525
 20
49.127400000000002
 30
0.0
 10
-14.525
 20
49.127400000000002
 30
0.0
 10
-14.525
 20
49.127400000000002
 30
0.0
 10
-14.4671
 20
49.168799999999997
 30
0.0
 10
-14.4102
 20
49.198900000000002
 30
0.0
 10
-14.3537
 20
49.217700000000001
 30
0.0
 10
-14.3537
 20
49.217700000000001
 30
0.0
 10
-14.296799999999999
 20
49.236499999999999
 30
0.0
 10
-14.2357
 20
49.245899999999999
 30
0.0
 10
-14.1698
 20
49.245899999999999
 30
0.0
 10
-14.1698
 20
49.245899999999999
 30
0.0
 10
-13.9742
 20
49.245899999999999
 30
0.0
 10
-13.813800000000001
 20
49.179600000000001
 30
0.0
 10
-13.688599999999999
 20
49.047400000000003
 30
0.0
 10
-13.688599999999999
 20
49.047400000000003
 30
0.0
 10
-13.564
 20
48.915199999999999
 30
0.0
 10
-13.5014
 20
48.746400000000001
 30
0.0
 10
-13.5014
 20
48.540300000000002
 30
0.0
 10
-13.5014
 20
48.540300000000002
 30
0.0
 10
-13.5014
 20
48.345599999999997
 30
0.0
 10
-13.568199999999999
 20
48.18
 30
0.0
 10
-13.7018
 20
48.043199999999999
 30
0.0
 10
-13.7018
 20
48.043199999999999
 30
0.0
 10
-13.8354
 20
47.906300000000002
 30
0.0
 10
-13.9977
 20
47.837600000000002
 30
0.0
 10
-14.1877
 20
47.837600000000002
 30
0.0
 10
-14.1877
 20
47.837600000000002
 30
0.0
 10
-14.3683
 20
47.837600000000002
 30
0.0
 10
-14.523099999999999
 20
47.898299999999999
 30
0.0
 10
-14.650499999999999
 20
48.020099999999999
 30
0.0
 10
-14.650499999999999
 20
48.020099999999999
 30
0.0
 10
-14.778
 20
48.1419
 30
0.0
 10
-14.849500000000001
 20
48.297600000000003
 30
0.0
 10
-14.864100000000001
 20
48.486699999999999
 30
0.0
  0
SPLINE
  5
48
100
AcDbEntity
  8
Layer 1
 62
   128
100
AcDbSpline
210
0.0
220
0.0
230
1.0
 70
     1
 71
     3
 72
    28
 73
    24
 74
     0
 42
0.0000000001
 43
0.0000000001
 40
0.0
 40
0.0
 40
0.0
 40
0.0
 40
0.1666666666666667
 40
0.1666666666666667
 40
0.1666666666666667
 40
0.1666666666666667
 40
0.3333333333333333
 40
0.3333333333333333
 40
0.3333333333333333
 40
0.3333333333333333
 40
0.5
 40
0.5
 40
0.5
 40
0.5
 40
0.6666666666666666
 40
0.6666666666666666
 40
0.6666666666666666
 40
0.6666666666666666
 40
0.8333333333333333
 40
0.8333333333333333
 40
0.8333333333333333
 40
0.8333333333333333
 40
1.0
 40
1.0
 40
1.0
 40
1.0
 10
-0.0599
 20
47.877600000000001
 30
0.0
 10
-0.0599
 20
47.877600000000001
 30
0.0
 10
-0.2692
 20
47.877600000000001
 30
0.0
 10
-0.2692
 20
47.877600000000001
 30
0.0
 10
-0.2692
 20
47.877600000000001
 30
0.0
 10
-0.2692
 20
47.877600000000001
 30
0.0
 10
-0.2692
 20
49.712000000000003
 30
0.0
 10
-0.2692
 20
49.712000000000003
 30
0.0
 10
-0.2692
 20
49.712000000000003
 30
0.0
 10
-0.2692
 20
49.712000000000003
 30
0.0
 10
-0.6191
 20
49.712000000000003
 30
0.0
 10
-0.6191
 20
49.712000000000003
 30
0.0
 10
-0.6191
 20
49.712000000000003
 30
0.0
 10
-0.6191
 20
49.712000000000003
 30
0.0
 10
-0.6191
 20
49.8842
 30
0.0
 10
-0.6191
 20
49.8842
 30
0.0
 10
-0.6191
 20
49.8842
 30
0.0
 10
-0.6191
 20
49.8842
 30
0.0
 10
-0.0599
 20
49.8842
 30
0.0
 10
-0.0599
 20
49.8842
 30
0.0
 10
-0.0599
 20
49.8842
 30
0.0
 10
-0.0599
 20
49.8842
 30
0.0
 10
-0.0599
 20
47.877600000000001
 30
0.0
 10
-0.0599
 20
47.877600000000001
 30
0.0
  0
SPLINE
  5
49
100
AcDbEntity
  8
Layer 1
 62
   128
100
AcDbSpline
210
0.0
220
0.0
230
1.0
 70
     1
 71
     3
 72
    28
 73
    24
 74
     0
 42
0.0000000001
 43
0.0000000001
 40
0.0
 40
0.0
 40
0.0
 40
0.0
 40
0.1666666666666667
 40
0.1666666666666667
 40
0.1666666666666667
 40
0.1666666666666667
 40
0.3333333333333333
 40
0.3333333333333333
 40
0.3333333333333333
 40
0.3333333333333333
 40
0.5
 40
0.5
 40
0.5
 40
0.5
 40
0.6666666666666666
 40
0.6666666666666666
 40
0.6666666666666666
 40
0.6666666666666666
 40
0.8333333333333333
 40
0.8333333333333333
 40
0.8333333333333333
 40
0.8333333333333333
 40
1.0
 40
1.0
 40
1.0
 40
1.0
 10
1.5346
 20
47.877600000000001
 30
0.0
 10
1.5346
 20
47.877600000000001
 30
0.0
 10
1.3252999999999999
 20
47.877600000000001
 30
0.0
 10
1.3252999999999999
 20
47.877600000000001
 30
0.0
 10
1.3252999999999999
 20
47.877600000000001
 30
0.0
 10
1.3252999999999999
 20
47.877600000000001
 30
0.0
 10
1.3252999999999999
 20
49.712000000000003
 30
0.0
 10
1.3252999999999999
 20
49.712000000000003
 30
0.0
 10
1.3252999999999999
 20
49.712000000000003
 30
0.0
 10
1.3252999999999999
 20
49.712000000000003
 30
0.0
 10
0.9754
 20
49.712000000000003
 30
0.0
 10
0.9754
 20
49.712000000000003
 30
0.0
 10
0.9754
 20
49.712000000000003
 30
0.0
 10
0.9754
 20
49.712000000000003
 30
0.0
 10
0.9754
 20
49.8842
 30
0.0
 10
0.9754
 20
49.8842
 30
0.0
 10
0.9754
 20
49.8842
 30
0.0
 10
0.9754
 20
49.8842
 30
0.0
 10
1.5346
 20
49.8842
 30
0.0
 10
1.5346
 20
49.8842
 30
0.0
 10
1.5346
 20
49.8842
 30
0.0
 10
1.5346
 20
49.8842
 30
0.0
 10
1.5346
 20
47.877600000000001
 30
0.0
 10
1.5346
 20
47.877600000000001
 30
0.0
  0
SPLINE
  5
4A
100
AcDbEntity
  8
Layer 1
 62
   128
100
AcDbSpline
210
0.0
220
0.0
230
1.0
 70
     1
 71
     3
 72
    96
 73
    92
 74
     0
 42
0.0000000001
 43
0.0000000001
 40
0.0
 40
0.0
 40
0.0
 40
0.0
 40
0.0434782608695652
 40
0.0434782608695652
 40
0.0434782608695652
 40
0.0434782608695652
 40
0.0869565217391304
 40
0.0869565217391304
 40
0.0869565217391304
 40
0.0869565217391304
 40
0.1304347826086957
 40
0.1304347826086957
 40
0.1304347826086957
 40
0.1304347826086957
 40
0.1739130434782609
 40
0.1739130434782609
 40
0.1739130434782609
 40
0.1739130434782609
 40
0.2173913043478261
 40
0.2173913043478261
 40
0.2173913043478261
 40
0.2173913043478261
 40
0.2608695652173913
 40
0.2608695652173913
 40
0.2608695652173913
 40
0.2608695652173913
 40
0.3043478260869565
 40
0.3043478260869565
 40
0.3043478260869565
 40
0.3043478260869565
 40
0.3478260869565217
 40
0.3478260869565217
 40
0.3478260869565217
 40
0.3478260869565217
 40
0.3913043478260869
 40
0.3913043478260869
 40
0.3913043478260869
 40
0.3913043478260869
 40
0.4347826086956521
 40
0.4347826086956521
 40
0.4347826086956521
 40
0.4347826086956521
 40
0.4782608695652173
 40
0.4782608695652173
 40
0.4782608695652173
 40
0.4782608695652173
 40
0.5217391304347825
 40
0.5217391304347825
 40
0.5217391304347825
 40
0.5217391304347825
 40
0.5652173913043477
 40
0.5652173913043477
 40
0.5652173913043477
 40
0.5652173913043477
 40
0.6086956521739129
 40
0.6086956521739129
 40
0.6086956521739129
 40
0.6086956521739129
 40
0.6521739130434781
 40
0.6521739130434781
 40
0.6521739130434781
 40
0.6521739130434781
 40
0.6956521739130432
 40
0.6956521739130432
 40
0.6956521739130432
 40
0.6956521739130432
 40
0.7391304347826084
 40
0.7391304347826084
 40
0.7391304347826084
 40
0.7391304347826084
 40
0.7826086956521736
 40
0.7826086956521736
 40
0.7826086956521736
 40
0.7826086956521736
 40
0.8260869565217388
 40
0.8260869565217388
 40
0.8260869565217388
 40
0.8260869565217388
 40
0.869565217391304
 40
0.869565217391304
 40
0.869565217391304
 40
0.869565217391304
 40
0.9130434782608692
 40
0.9130434782608692
 40
0.9130434782608692
 40
0.9130434782608692
 40
0.9565217391304344
 40
0.9565217391304344
 40
0.9565217391304344
 40
0.9565217391304344
 40
1.0
 40
1.0
 40
1.0
 40
1.0
 10
2.3134999999999999
 20
48.486699999999999
 30
0.0
 10
2.3134999999999999
 20
48.486699999999999
 30
0.0
 10
2.5133999999999999
 20
48.486699999999999
 30
0.0
 10
2.5133999999999999
 20
48.486699999999999
 30
0.0
 10
2.5133999999999999
 20
48.486699999999999
 30
0.0
 10
2.5209000000000001
 20
48.356400000000001
 30
0.0
 10
2.5716999999999999
 20
48.245399999999997
 30
0.0
 10
2.6663000000000001
 20
48.154600000000002
 30
0.0
 10
2.6663000000000001
 20
48.154600000000002
 30
0.0
 10
2.7608000000000001
 20
48.063899999999997
 30
0.0
 10
2.8708999999999998
 20
48.0182
 30
0.0
 10
2.9969999999999999
 20
48.0182
 30
0.0
 10
2.9969999999999999
 20
48.0182
 30
0.0
 10
3.1318999999999999
 20
48.0182
 30
0.0
 10
3.2462
 20
48.069000000000003
 30
0.0
 10
3.3393999999999999
 20
48.1706
 30
0.0
 10
3.3393999999999999
 20
48.1706
 30
0.0
 10
3.4325000000000001
 20
48.271799999999999
 30
0.0
 10
3.4790999999999999
 20
48.397399999999998
 30
0.0
 10
3.4790999999999999
 20
48.545999999999999
 30
0.0
 10
3.4790999999999999
 20
48.545999999999999
 30
0.0
 10
3.4790999999999999
 20
48.6965
 30
0.0
 10
3.4325000000000001
 20
48.818300000000001
 30
0.0
 10
3.3393999999999999
 20
48.911900000000003
 30
0.0
 10
3.3393999999999999
 20
48.911900000000003
 30
0.0
 10
3.2462
 20
49.005099999999999
 30
0.0
 10
3.1240000000000001
 20
49.051600000000001
 30
0.0
 10
2.9733999999999998
 20
49.051600000000001
 30
0.0
 10
2.9733999999999998
 20
49.051600000000001
 30
0.0
 10
2.8883000000000001
 20
49.051600000000001
 30
0.0
 10
2.8111999999999999
 20
49.032400000000003
 30
0.0
 10
2.742
 20
48.994300000000003
 30
0.0
 10
2.742
 20
48.994300000000003
 30
0.0
 10
2.6732999999999998
 20
48.956200000000003
 30
0.0
 10
2.6122000000000001
 20
48.898299999999999
 30
0.0
 10
2.5590000000000002
 20
48.8202
 30
0.0
 10
2.5590000000000002
 20
48.8202
 30
0.0
 10
2.5590000000000002
 20
48.8202
 30
0.0
 10
2.4070999999999998
 20
48.890300000000003
 30
0.0
 10
2.4070999999999998
 20
48.890300000000003
 30
0.0
 10
2.4070999999999998
 20
48.890300000000003
 30
0.0
 10
2.4070999999999998
 20
48.890300000000003
 30
0.0
 10
2.5849000000000002
 20
49.8842
 30
0.0
 10
2.5849000000000002
 20
49.8842
 30
0.0
 10
2.5849000000000002
 20
49.8842
 30
0.0
 10
2.5849000000000002
 20
49.8842
 30
0.0
 10
3.4899
 20
49.8842
 30
0.0
 10
3.4899
 20
49.8842
 30
0.0
 10
3.4899
 20
49.8842
 30
0.0
 10
3.4899
 20
49.8842
 30
0.0
 10
3.4899
 20
49.687100000000001
 30
0.0
 10
3.4899
 20
49.687100000000001
 30
0.0
 10
3.4899
 20
49.687100000000001
 30
0.0
 10
3.4899
 20
49.687100000000001
 30
0.0
 10
2.7532999999999999
 20
49.687100000000001
 30
0.0
 10
2.7532999999999999
 20
49.687100000000001
 30
0.0
 10
2.7532999999999999
 20
49.687100000000001
 30
0.0
 10
2.7532999999999999
 20
49.687100000000001
 30
0.0
 10
2.6526000000000001
 20
49.127400000000002
 30
0.0
 10
2.6526000000000001
 20
49.127400000000002
 30
0.0
 10
2.6526000000000001
 20
49.127400000000002
 30
0.0
 10
2.7105000000000001
 20
49.168799999999997
 30
0.0
 10
2.7673999999999999
 20
49.198900000000002
 30
0.0
 10
2.8239000000000001
 20
49.217700000000001
 30
0.0
 10
2.8239000000000001
 20
49.217700000000001
 30
0.0
 10
2.8807999999999998
 20
49.236499999999999
 30
0.0
 10
2.9419
 20
49.245899999999999
 30
0.0
 10
3.0078
 20
49.245899999999999
 30
0.0
 10
3.0078
 20
49.245899999999999
 30
0.0
 10
3.2033999999999998
 20
49.245899999999999
 30
0.0
 10
3.3637999999999999
 20
49.179600000000001
 30
0.0
 10
3.4889999999999999
 20
49.047400000000003
 30
0.0
 10
3.4889999999999999
 20
49.047400000000003
 30
0.0
 10
3.6135999999999999
 20
48.915199999999999
 30
0.0
 10
3.6762000000000001
 20
48.746400000000001
 30
0.0
 10
3.6762000000000001
 20
48.540300000000002
 30
0.0
 10
3.6762000000000001
 20
48.540300000000002
 30
0.0
 10
3.6762000000000001
 20
48.345599999999997
 30
0.0
 10
3.6093999999999999
 20
48.18
 30
0.0
 10
3.4758
 20
48.043199999999999
 30
0.0
 10
3.4758
 20
48.043199999999999
 30
0.0
 10
3.3422000000000001
 20
47.906300000000002
 30
0.0
 10
3.1798999999999999
 20
47.837600000000002
 30
0.0
 10
2.9899
 20
47.837600000000002
 30
0.0
 10
2.9899
 20
47.837600000000002
 30
0.0
 10
2.8092999999999999
 20
47.837600000000002
 30
0.0
 10
2.6545000000000001
 20
47.898299999999999
 30
0.0
 10
2.5270999999999999
 20
48.020099999999999
 30
0.0
 10
2.5270999999999999
 20
48.020099999999999
 30
0.0
 10
2.3996
 20
48.1419
 30
0.0
 10
2.3281000000000001
 20
48.297600000000003
 30
0.0
 10
2.3134999999999999
 20
48.486699999999999
 30
0.0
  0
SPLINE
  5
4B
100
AcDbEntity
  8
Layer 1
 62
     3
100
AcDbSpline
210
0.0
220
0.0
230
1.0
 70
     1
 71
     3
 72
    28
 73
    24
 74
     0
 42
0.0000000001
 43
0.0000000001
 40
0.0
 40
0.0
 40
0.0
 40
0.0
 40
0.1666666666666667
 40
0.1666666666666667
 40
0.1666666666666667
 40
0.1666666666666667
 40
0.3333333333333333
 40
0.3333333333333333
 40
0.3333333333333333
 40
0.3333333333333333
 40
0.5
 40
0.5
 40
0.5
 40
0.5
 40
0.6666666666666666
 40
0.6666666666666666
 40
0.6666666666666666
 40
0.6666666666666666
 40
0.8333333333333333
 40
0.8333333333333333
 40
0.8333333333333333
 40
0.8333333333333333
 40
1.0
 40
1.0
 40
1.0
 40
1.0
 10
-36.104700000000001
 20
7.8903999999999996
 30
0.0
 10
-36.104700000000001
 20
7.8903999999999996
 30
0.0
 10
-36.314
 20
7.8903999999999996
 30
0.0
 10
-36.314
 20
7.8903999999999996
 30
0.0
 10
-36.314
 20
7.8903999999999996
 30
0.0
 10
-36.314
 20
7.8903999999999996
 30
0.0
 10
-36.314
 20
9.7248000000000001
 30
0.0
 10
-36.314
 20
9.7248000000000001
 30
0.0
 10
-36.314
 20
9.7248000000000001
 30
0.0
 10
-36.314
 20
9.7248000000000001
 30
0.0
 10
-36.663899999999998
 20
9.7248000000000001
 30
0.0
 10
-36.663899999999998
 20
9.7248000000000001
 30
0.0
 10
-36.663899999999998
 20
9.7248000000000001
 30
0.0
 10
-36.663899999999998
 20
9.7248000000000001
 30
0.0
 10
-36.663899999999998
 20
9.8970000000000002
 30
0.0
 10
-36.663899999999998
 20
9.8970000000000002
 30
0.0
 10
-36.663899999999998
 20
9.8970000000000002
 30
0.0
 10
-36.663899999999998
 20
9.8970000000000002
 30
0.0
 10
-36.104700000000001
 20
9.8970000000000002
 30
0.0
 10
-36.104700000000001
 20
9.8970000000000002
 30
0.0
 10
-36.104700000000001
 20
9.8970000000000002
 30
0.0
 10
-36.104700000000001
 20
9.8970000000000002
 30
0.0
 10
-36.104700000000001
 20
7.8903999999999996
 30
0.0
 10
-36.104700000000001
 20
7.8903999999999996
 30
0.0
  0
SPLINE
  5
4C
100
AcDbEntity
  8
Layer 1
 62
     3
100
AcDbSpline
210
0.0
220
0.0
230
1.0
 70
     1
 71
     3
 72
   132
 73
   128
 74
     0
 42
0.0000000001
 43
0.0000000001
 40
0.0
 40
0.0
 40
0.0
 40
0.0
 40
0.03125
 40
0.03125
 40
0.03125
 40
0.03125
 40
0.0625
 40
0.0625
 40
0.0625
 40
0.0625
 40
0.09375
 40
0.09375
 40
0.09375
 40
0.09375
 40
0.125
 40
0.125
 40
0.125
 40
0.125
 40
0.15625
 40
0.15625
 40
0.15625
 40
0.15625
 40
0.1875
 40
0.1875
 40
0.1875
 40
0.1875
 40
0.21875
 40
0.21875
 40
0.21875
 40
0.21875
 40
0.25
 40
0.25
 40
0.25
 40
0.25
 40
0.28125
 40
0.28125
 40
0.28125
 40
0.28125
 40
0.3125
 40
0.3125
 40
0.3125
 40
0.3125
 40
0.34375
 40
0.34375
 40
0.34375
 40
0.34375
 40
0.375
 40
0.375
 40
0.375
 40
0.375
 40
0.40625
 40
0.40625
 40
0.40625
 40
0.40625
 40
0.4375
 40
0.4375
 40
0.4375
 40
0.4375
 40
0.46875
 40
0.46875
 40
0.46875
 40
0.46875
 40
0.5
 40
0.5
 40
0.5
 40
0.5
 40
0.53125
 40
0.53125
 40
0.53125
 40
0.53125
 40
0.5625
 40
0.5625
 40
0.5625
 40
0.5625
 40
0.59375
 40
0.59375
 40
0.59375
 40
0.59375
 40
0.625
 40
0.625
 40
0.625
 40
0.625
 40
0.65625
 40
0.65625
 40
0.65625
 40
0.65625
 40
0.6875
 40
0.6875
 40
0.6875
 40
0.6875
 40
0.71875
 40
0.71875
 40
0.71875
 40
0.71875
 40
0.75
 40
0.75
 40
0.75
 40
0.75
 40
0.78125
 40
0.78125
 40
0.78125
 40
0.78125
 40
0.8125
 40
0.8125
 40
0.8125
 40
0.8125
 40
0.84375
 40
0.84375
 40
0.84375
 40
0.84375
 40
0.875
 40
0.875
 40
0.875
 40
0.875
 40
0.90625
 40
0.90625
 40
0.90625
 40
0.90625
 40
0.9375
 40
0.9375
 40
0.9375
 40
0.9375
 40
0.96875
 40
0.96875
 40
0.96875
 40
0.96875
 40
1.0
 40
1.0
 40
1.0
 40
1.0
 10
-35.091500000000003
 20
8.4994999999999994
 30
0.0
 10
-35.091500000000003
 20
8.4994999999999994
 30
0.0
 10
-35.091500000000003
 20
8.4831000000000003
 30
0.0
 10
-35.091500000000003
 20
8.4831000000000003
 30
0.0
 10
-35.091500000000003
 20
8.4831000000000003
 30
0.0
 10
-35.091500000000003
 20
8.3504000000000005
 30
0.0
 10
-35.050600000000003
 20
8.2408000000000001
 30
0.0
 10
-34.968299999999999
 20
8.1532999999999998
 30
0.0
 10
-34.968299999999999
 20
8.1532999999999998
 30
0.0
 10
-34.886000000000003
 20
8.0663
 30
0.0
 10
-34.784399999999998
 20
8.0226000000000006
 30
0.0
 10
-34.662999999999997
 20
8.0226000000000006
 30
0.0
 10
-34.662999999999997
 20
8.0226000000000006
 30
0.0
 10
-34.531799999999997
 20
8.0226000000000006
 30
0.0
 10
-34.4236
 20
8.0657999999999994
 30
0.0
 10
-34.338500000000003
 20
8.1529000000000007
 30
0.0
 10
-34.338500000000003
 20
8.1529000000000007
 30
0.0
 10
-34.253399999999999
 20
8.2399000000000004
 30
0.0
 10
-34.210999999999999
 20
8.3504000000000005
 30
0.0
 10
-34.210999999999999
 20
8.4859000000000009
 30
0.0
 10
-34.210999999999999
 20
8.4859000000000009
 30
0.0
 10
-34.210999999999999
 20
8.6392000000000007
 30
0.0
 10
-34.2562
 20
8.7559000000000005
 30
0.0
 10
-34.345999999999997
 20
8.8353999999999999
 30
0.0
 10
-34.345999999999997
 20
8.8353999999999999
 30
0.0
 10
-34.435899999999997
 20
8.9148999999999994
 30
0.0
 10
-34.567999999999998
 20
8.9543999999999997
 30
0.0
 10
-34.741599999999998
 20
8.9543999999999997
 30
0.0
 10
-34.741599999999998
 20
8.9543999999999997
 30
0.0
 10
-34.766100000000002
 20
8.9543999999999997
 30
0.0
 10
-34.785299999999999
 20
8.9543999999999997
 30
0.0
 10
-34.798499999999997
 20
8.9539000000000009
 30
0.0
 10
-34.798499999999997
 20
8.9539000000000009
 30
0.0
 10
-34.812100000000001
 20
8.9534000000000002
 30
0.0
 10
-34.823399999999999
 20
8.9525000000000006
 30
0.0
 10
-34.833799999999997
 20
8.9514999999999993
 30
0.0
 10
-34.833799999999997
 20
8.9514999999999993
 30
0.0
 10
-34.833799999999997
 20
8.9514999999999993
 30
0.0
 10
-34.833799999999997
 20
9.1184999999999992
 30
0.0
 10
-34.833799999999997
 20
9.1184999999999992
 30
0.0
 10
-34.833799999999997
 20
9.1184999999999992
 30
0.0
 10
-34.823399999999999
 20
9.1175999999999995
 30
0.0
 10
-34.812600000000003
 20
9.1166
 30
0.0
 10
-34.800899999999999
 20
9.1161999999999992
 30
0.0
 10
-34.800899999999999
 20
9.1161999999999992
 30
0.0
 10
-34.788600000000002
 20
9.1157000000000004
 30
0.0
 10
-34.770800000000001
 20
9.1157000000000004
 30
0.0
 10
-34.7468
 20
9.1157000000000004
 30
0.0
 10
-34.7468
 20
9.1157000000000004
 30
0.0
 10
-34.614600000000003
 20
9.1157000000000004
 30
0.0
 10
-34.515300000000003
 20
9.1430000000000007
 30
0.0
 10
-34.448599999999999
 20
9.1974999999999998
 30
0.0
 10
-34.448599999999999
 20
9.1974999999999998
 30
0.0
 10
-34.382199999999997
 20
9.2525999999999993
 30
0.0
 10
-34.348799999999997
 20
9.3339999999999996
 30
0.0
 10
-34.348799999999997
 20
9.4420999999999999
 30
0.0
 10
-34.348799999999997
 20
9.4420999999999999
 30
0.0
 10
-34.348799999999997
 20
9.5361999999999991
 30
0.0
 10
-34.377499999999998
 20
9.6134000000000004
 30
0.0
 10
-34.434399999999997
 20
9.6739999999999995
 30
0.0
 10
-34.434399999999997
 20
9.6739999999999995
 30
0.0
 10
-34.491399999999999
 20
9.7347000000000001
 30
0.0
 10
-34.562899999999999
 20
9.7647999999999993
 30
0.0
 10
-34.648899999999998
 20
9.7647999999999993
 30
0.0
 10
-34.648899999999998
 20
9.7647999999999993
 30
0.0
 10
-34.747199999999999
 20
9.7647999999999993
 30
0.0
 10
-34.824399999999997
 20
9.7352000000000007
 30
0.0
 10
-34.880400000000002
 20
9.6759000000000004
 30
0.0
 10
-34.880400000000002
 20
9.6759000000000004
 30
0.0
 10
-34.936799999999998
 20
9.6166
 30
0.0
 10
-34.965499999999999
 20
9.5338999999999992
 30
0.0
 10
-34.967399999999998
 20
9.4270999999999994
 30
0.0
 10
-34.967399999999998
 20
9.4270999999999994
 30
0.0
 10
-34.967399999999998
 20
9.4270999999999994
 30
0.0
 10
-35.150799999999997
 20
9.4270999999999994
 30
0.0
 10
-35.150799999999997
 20
9.4270999999999994
 30
0.0
 10
-35.150799999999997
 20
9.4270999999999994
 30
0.0
 10
-35.142299999999999
 20
9.5831999999999997
 30
0.0
 10
-35.092500000000001
 20
9.7073999999999998
 30
0.0
 10
-35.000799999999998
 20
9.7990999999999993
 30
0.0
 10
-35.000799999999998
 20
9.7990999999999993
 30
0.0
 10
-34.9086
 20
9.8909000000000002
 30
0.0
 10
-34.788200000000003
 20
9.9369999999999994
 30
0.0
 10
-34.639499999999998
 20
9.9369999999999994
 30
0.0
 10
-34.639499999999998
 20
9.9369999999999994
 30
0.0
 10
-34.502600000000001
 20
9.9369999999999994
 30
0.0
 10
-34.386000000000003
 20
9.8879999999999999
 30
0.0
 10
-34.289999999999999
 20
9.7902000000000005
 30
0.0
 10
-34.289999999999999
 20
9.7902000000000005
 30
0.0
 10
-34.194099999999999
 20
9.6923999999999992
 30
0.0
 10
-34.146099999999997
 20
9.5762
 30
0.0
 10
-34.146099999999997
 20
9.4420999999999999
 30
0.0
 10
-34.146099999999997
 20
9.4420999999999999
 30
0.0
 10
-34.146099999999997
 20
9.3621999999999996
 30
0.0
 10
-34.1616
 20
9.2926000000000002
 30
0.0
 10
-34.1922
 20
9.2332999999999998
 30
0.0
 10
-34.1922
 20
9.2332999999999998
 30
0.0
 10
-34.223300000000002
 20
9.1739999999999995
 30
0.0
 10
-34.272599999999997
 20
9.1198999999999995
 30
0.0
 10
-34.340400000000002
 20
9.0701000000000001
 30
0.0
 10
-34.340400000000002
 20
9.0701000000000001
 30
0.0
 10
-34.231200000000001
 20
9.0122
 30
0.0
 10
-34.148899999999998
 20
8.9365000000000006
 30
0.0
 10
-34.093899999999998
 20
8.8420000000000005
 30
0.0
 10
-34.093899999999998
 20
8.8420000000000005
 30
0.0
 10
-34.038899999999998
 20
8.7478999999999996
 30
0.0
 10
-34.011099999999999
 20
8.6355000000000004
 30
0.0
 10
-34.011099999999999
 20
8.5052000000000003
 30
0.0
 10
-34.011099999999999
 20
8.5052000000000003
 30
0.0
 10
-34.011099999999999
 20
8.3202999999999996
 30
0.0
 10
-34.071800000000003
 20
8.1651000000000007
 30
0.0
 10
-34.193600000000004
 20
8.0389999999999997
 30
0.0
 10
-34.193600000000004
 20
8.0389999999999997
 30
0.0
 10
-34.315399999999997
 20
7.9134000000000002
 30
0.0
 10
-34.468299999999999
 20
7.8503999999999996
 30
0.0
 10
-34.651800000000001
 20
7.8503999999999996
 30
0.0
 10
-34.651800000000001
 20
7.8503999999999996
 30
0.0
 10
-34.847900000000003
 20
7.8503999999999996
 30
0.0
 10
-35.002600000000001
 20
7.9082999999999997
 30
0.0
 10
-35.116500000000002
 20
8.0239999999999991
 30
0.0
 10
-35.116500000000002
 20
8.0239999999999991
 30
0.0
 10
-35.2303
 20
8.1396999999999995
 30
0.0
 10
-35.288600000000002
 20
8.2981999999999996
 30
0.0
 10
-35.291499999999999
 20
8.4994999999999994
 30
0.0
 10
-35.291499999999999
 20
8.4994999999999994
 30
0.0
 10
-35.291499999999999
 20
8.4994999999999994
 30
0.0
 10
-35.091500000000003
 20
8.4994999999999994
 30
0.0
 10
-35.091500000000003
 20
8.4994999999999994
 30
0.0
  0
SPLINE
  5
4D
100
AcDbEntity
  8
Layer 1
 62
     3
100
AcDbSpline
210
0.0
220
0.0
230
1.0
 70
     1
 71
     3
 72
    96
 73
    92
 74
     0
 42
0.0000000001
 43
0.0000000001
 40
0.0
 40
0.0
 40
0.0
 40
0.0
 40
0.0434782608695652
 40
0.0434782608695652
 40
0.0434782608695652
 40
0.0434782608695652
 40
0.0869565217391304
 40
0.0869565217391304
 40
0.0869565217391304
 40
0.0869565217391304
 40
0.1304347826086957
 40
0.1304347826086957
 40
0.1304347826086957
 40
0.1304347826086957
 40
0.1739130434782609
 40
0.1739130434782609
 40
0.1739130434782609
 40
0.1739130434782609
 40
0.2173913043478261
 40
0.2173913043478261
 40
0.2173913043478261
 40
0.2173913043478261
 40
0.2608695652173913
 40
0.2608695652173913
 40
0.2608695652173913
 40
0.2608695652173913
 40
0.3043478260869565
 40
0.3043478260869565
 40
0.3043478260869565
 40
0.3043478260869565
 40
0.3478260869565217
 40
0.3478260869565217
 40
0.3478260869565217
 40
0.3478260869565217
 40
0.3913043478260869
 40
0.3913043478260869
 40
0.3913043478260869
 40
0.3913043478260869
 40
0.4347826086956521
 40
0.4347826086956521
 40
0.4347826086956521
 40
0.4347826086956521
 40
0.4782608695652173
 40
0.4782608695652173
 40
0.4782608695652173
 40
0.4782608695652173
 40
0.5217391304347825
 40
0.5217391304347825
 40
0.5217391304347825
 40
0.5217391304347825
 40
0.5652173913043477
 40
0.5652173913043477
 40
0.5652173913043477
 40
0.5652173913043477
 40
0.6086956521739129
 40
0.6086956521739129
 40
0.6086956521739129
 40
0.6086956521739129
 40
0.6521739130434781
 40
0.6521739130434781
 40
0.6521739130434781
 40
0.6521739130434781
 40
0.6956521739130432
 40
0.6956521739130432
 40
0.6956521739130432
 40
0.6956521739130432
 40
0.7391304347826084
 40
0.7391304347826084
 40
0.7391304347826084
 40
0.7391304347826084
 40
0.7826086956521736
 40
0.7826086956521736
 40
0.7826086956521736
 40
0.7826086956521736
 40
0.8260869565217388
 40
0.8260869565217388
 40
0.8260869565217388
 40
0.8260869565217388
 40
0.869565217391304
 40
0.869565217391304
 40
0.869565217391304
 40
0.869565217391304
 40
0.9130434782608692
 40
0.9130434782608692
 40
0.9130434782608692
 40
0.9130434782608692
 40
0.9565217391304344
 40
0.9565217391304344
 40
0.9565217391304344
 40
0.9565217391304344
 40
1.0
 40
1.0
 40
1.0
 40
1.0
 10
-33.731299999999997
 20
8.4994999999999994
 30
0.0
 10
-33.731299999999997
 20
8.4994999999999994
 30
0.0
 10
-33.531399999999998
 20
8.4994999999999994
 30
0.0
 10
-33.531399999999998
 20
8.4994999999999994
 30
0.0
 10
-33.531399999999998
 20
8.4994999999999994
 30
0.0
 10
-33.523899999999998
 20
8.3691999999999993
 30
0.0
 10
-33.473100000000002
 20
8.2582000000000004
 30
0.0
 10
-33.378500000000003
 20
8.1674000000000007
 30
0.0
 10
-33.378500000000003
 20
8.1674000000000007
 30
0.0
 10
-33.283999999999999
 20
8.0767000000000007
 30
0.0
 10
-33.173900000000003
 20
8.0310000000000006
 30
0.0
 10
-33.047800000000002
 20
8.0310000000000006
 30
0.0
 10
-33.047800000000002
 20
8.0310000000000006
 30
0.0
 10
-32.9129
 20
8.0310000000000006
 30
0.0
 10
-32.7986
 20
8.0817999999999994
 30
0.0
 10
-32.705399999999997
 20
8.1834000000000007
 30
0.0
 10
-32.705399999999997
 20
8.1834000000000007
 30
0.0
 10
-32.612299999999998
 20
8.2845999999999993
 30
0.0
 10
-32.5657
 20
8.4101999999999997
 30
0.0
 10
-32.5657
 20
8.5587999999999997
 30
0.0
 10
-32.5657
 20
8.5587999999999997
 30
0.0
 10
-32.5657
 20
8.7093000000000007
 30
0.0
 10
-32.612299999999998
 20
8.8310999999999993
 30
0.0
 10
-32.705399999999997
 20
8.9246999999999996
 30
0.0
 10
-32.705399999999997
 20
8.9246999999999996
 30
0.0
 10
-32.7986
 20
9.0178999999999991
 30
0.0
 10
-32.9208
 20
9.0643999999999991
 30
0.0
 10
-33.071399999999997
 20
9.0643999999999991
 30
0.0
 10
-33.071399999999997
 20
9.0643999999999991
 30
0.0
 10
-33.156500000000001
 20
9.0643999999999991
 30
0.0
 10
-33.233600000000003
 20
9.0451999999999995
 30
0.0
 10
-33.302799999999998
 20
9.0070999999999994
 30
0.0
 10
-33.302799999999998
 20
9.0070999999999994
 30
0.0
 10
-33.371499999999997
 20
8.9689999999999994
 30
0.0
 10
-33.432600000000001
 20
8.9110999999999994
 30
0.0
 10
-33.485799999999998
 20
8.8330000000000002
 30
0.0
 10
-33.485799999999998
 20
8.8330000000000002
 30
0.0
 10
-33.485799999999998
 20
8.8330000000000002
 30
0.0
 10
-33.637700000000002
 20
8.9031000000000002
 30
0.0
 10
-33.637700000000002
 20
8.9031000000000002
 30
0.0
 10
-33.637700000000002
 20
8.9031000000000002
 30
0.0
 10
-33.637700000000002
 20
8.9031000000000002
 30
0.0
 10
-33.459899999999998
 20
9.8970000000000002
 30
0.0
 10
-33.459899999999998
 20
9.8970000000000002
 30
0.0
 10
-33.459899999999998
 20
9.8970000000000002
 30
0.0
 10
-33.459899999999998
 20
9.8970000000000002
 30
0.0
 10
-32.554900000000004
 20
9.8970000000000002
 30
0.0
 10
-32.554900000000004
 20
9.8970000000000002
 30
0.0
 10
-32.554900000000004
 20
9.8970000000000002
 30
0.0
 10
-32.554900000000004
 20
9.8970000000000002
 30
0.0
 10
-32.554900000000004
 20
9.6998999999999995
 30
0.0
 10
-32.554900000000004
 20
9.6998999999999995
 30
0.0
 10
-32.554900000000004
 20
9.6998999999999995
 30
0.0
 10
-32.554900000000004
 20
9.6998999999999995
 30
0.0
 10
-33.291499999999999
 20
9.6998999999999995
 30
0.0
 10
-33.291499999999999
 20
9.6998999999999995
 30
0.0
 10
-33.291499999999999
 20
9.6998999999999995
 30
0.0
 10
-33.291499999999999
 20
9.6998999999999995
 30
0.0
 10
-33.392200000000003
 20
9.1402000000000001
 30
0.0
 10
-33.392200000000003
 20
9.1402000000000001
 30
0.0
 10
-33.392200000000003
 20
9.1402000000000001
 30
0.0
 10
-33.334299999999999
 20
9.1815999999999995
 30
0.0
 10
-33.2774
 20
9.2117000000000004
 30
0.0
 10
-33.2209
 20
9.2304999999999993
 30
0.0
 10
-33.2209
 20
9.2304999999999993
 30
0.0
 10
-33.164000000000001
 20
9.2492999999999999
 30
0.0
 10
-33.102899999999998
 20
9.2586999999999993
 30
0.0
 10
-33.036999999999999
 20
9.2586999999999993
 30
0.0
 10
-33.036999999999999
 20
9.2586999999999993
 30
0.0
 10
-32.8414
 20
9.2586999999999993
 30
0.0
 10
-32.680999999999997
 20
9.1923999999999992
 30
0.0
 10
-32.555799999999998
 20
9.0602
 30
0.0
 10
-32.555799999999998
 20
9.0602
 30
0.0
 10
-32.431199999999997
 20
8.9280000000000008
 30
0.0
 10
-32.368600000000001
 20
8.7591999999999999
 30
0.0
 10
-32.368600000000001
 20
8.5531000000000006
 30
0.0
 10
-32.368600000000001
 20
8.5531000000000006
 30
0.0
 10
-32.368600000000001
 20
8.3583999999999996
 30
0.0
 10
-32.435400000000001
 20
8.1928000000000001
 30
0.0
 10
-32.569000000000003
 20
8.0559999999999992
 30
0.0
 10
-32.569000000000003
 20
8.0559999999999992
 30
0.0
 10
-32.702599999999997
 20
7.9191000000000003
 30
0.0
 10
-32.864899999999999
 20
7.8503999999999996
 30
0.0
 10
-33.054900000000004
 20
7.8503999999999996
 30
0.0
 10
-33.054900000000004
 20
7.8503999999999996
 30
0.0
 10
-33.235500000000002
 20
7.8503999999999996
 30
0.0
 10
-33.390300000000003
 20
7.9111000000000002
 30
0.0
 10
-33.517699999999998
 20
8.0328999999999997
 30
0.0
 10
-33.517699999999998
 20
8.0328999999999997
 30
0.0
 10
-33.645200000000003
 20
8.1547000000000001
 30
0.0
 10
-33.716700000000003
 20
8.3103999999999996
 30
0.0
 10
-33.731299999999997
 20
8.4994999999999994
 30
0.0
  0
SPLINE
  5
4E
100
AcDbEntity
  8
Layer 1
100
AcDbSpline
210
0.0
220
0.0
230
1.0
 70
     0
 71
     3
 72
    28
 73
    24
 74
     0
 42
0.0000000001
 43
0.0000000001
 40
0.0
 40
0.0
 40
0.0
 40
0.0
 40
0.1666666666666667
 40
0.1666666666666667
 40
0.1666666666666667
 40
0.1666666666666667
 40
0.3333333333333333
 40
0.3333333333333333
 40
0.3333333333333333
 40
0.3333333333333333
 40
0.5
 40
0.5
 40
0.5
 40
0.5
 40
0.6666666666666666
 40
0.6666666666666666
 40
0.6666666666666666
 40
0.6666666666666666
 40
0.8333333333333333
 40
0.8333333333333333
 40
0.8333333333333333
 40
0.8333333333333333
 40
1.0
 40
1.0
 40
1.0
 40
1.0
 10
-33.086399999999998
 20
11.9328
 30
0.0
 10
-33.086399999999998
 20
11.9328
 30
0.0
 10
-22.106999999999999
 20
20.8598
 30
0.0
 10
-22.106999999999999
 20
20.8598
 30
0.0
 10
-22.106999999999999
 20
20.8598
 30
0.0
 10
-20.3428
 20
22.765699999999999
 30
0.0
 10
-18.2453
 20
24.4102
 30
0.0
 10
-16.814399999999999
 20
26.5776
 30
0.0
 10
-16.814399999999999
 20
26.5776
 30
0.0
 10
-16.260300000000001
 20
27.416899999999998
 30
0.0
 10
-16.721499999999999
 20
28.621400000000001
 30
0.0
 10
-16.362400000000001
 20
29.5608
 30
0.0
 10
-16.362400000000001
 20
29.5608
 30
0.0
 10
-15.9232
 20
30.709399999999999
 30
0.0
 10
-15.305199999999999
 20
31.8276
 30
0.0
 10
-14.464
 20
32.724800000000002
 30
0.0
 10
-14.464
 20
32.724800000000002
 30
0.0
 10
-13.015499999999999
 20
34.270000000000003
 30
0.0
 10
-11.538399999999999
 20
35.980200000000004
 30
0.0
 10
-9.5823999999999998
 20
36.7928
 30
0.0
 10
-9.5823999999999998
 20
36.7928
 30
0.0
 10
-9.5823999999999998
 20
36.7928
 30
0.0
 10
9.1303999999999998
 20
44.5672
 30
0.0
 10
9.1303999999999998
 20
44.5672
 30
0.0
  0
SPLINE
  5
4F
100
AcDbEntity
  8
Layer 1
100
AcDbSpline
210
0.0
220
0.0
230
1.0
 70
     0
 71
     3
 72
    20
 73
    16
 74
     0
 42
0.0000000001
 43
0.0000000001
 40
0.0
 40
0.0
 40
0.0
 40
0.0
 40
0.25
 40
0.25
 40
0.25
 40
0.25
 40
0.5
 40
0.5
 40
0.5
 40
0.5
 40
0.75
 40
0.75
 40
0.75
 40
0.75
 40
1.0
 40
1.0
 40
1.0
 40
1.0
 10
-16.467099999999999
 20
29.120200000000001
 30
0.0
 10
-15.984999999999999
 20
28.427199999999999
 30
0.0
 10
-15.606400000000001
 20
27.334599999999998
 30
0.0
 10
-14.916
 20
26.848800000000001
 30
0.0
 10
-14.916
 20
26.848800000000001
 30
0.0
 10
-13.9095
 20
26.1404
 30
0.0
 10
-12.6259
 20
25.944800000000001
 30
0.0
 10
-11.4808
 20
25.492799999999999
 30
0.0
 10
-11.4808
 20
25.492799999999999
 30
0.0
 10
-11.4808
 20
25.492799999999999
 30
0.0
 10
-6.5087999999999999
 20
22.961600000000001
 30
0.0
 10
-6.5087999999999999
 20
22.961600000000001
 30
0.0
 10
-6.5087999999999999
 20
22.961600000000001
 30
0.0
 10
-6.5087999999999999
 20
22.961600000000001
 30
0.0
 10
-4.2488000000000001
 20
21.696000000000002
 30
0.0
 10
-4.2488000000000001
 20
21.696000000000002
 30
0.0
  0
SPLINE
  5
50
100
AcDbEntity
  8
Layer 1
100
AcDbSpline
210
0.0
220
0.0
230
1.0
 70
     1
 71
     3
 72
    20
 73
    16
 74
     0
 42
0.0000000001
 43
0.0000000001
 40
0.0
 40
0.0
 40
0.0
 40
0.0
 40
0.25
 40
0.25
 40
0.25
 40
0.25
 40
0.5
 40
0.5
 40
0.5
 40
0.5
 40
0.75
 40
0.75
 40
0.75
 40
0.75
 40
1.0
 40
1.0
 40
1.0
 40
1.0
 10
-6.0186999999999999
 20
22.3123
 30
0.0
 10
-6.0186999999999999
 20
22.3123
 30
0.0
 10
-3.8304999999999998
 20
21.039899999999999
 30
0.0
 10
-3.8304999999999998
 20
21.039899999999999
 30
0.0
 10
-3.8304999999999998
 20
21.039899999999999
 30
0.0
 10
-3.8304999999999998
 20
21.039899999999999
 30
0.0
 10
-4.6485000000000003
 20
19.633299999999998
 30
0.0
 10
-4.6485000000000003
 20
19.633299999999998
 30
0.0
 10
-4.6485000000000003
 20
19.633299999999998
 30
0.0
 10
-4.6485000000000003
 20
19.633299999999998
 30
0.0
 10
-6.8367000000000004
 20
20.9057
 30
0.0
 10
-6.8367000000000004
 20
20.9057
 30
0.0
 10
-6.8367000000000004
 20
20.9057
 30
0.0
 10
-6.8367000000000004
 20
20.9057
 30
0.0
 10
-6.0186999999999999
 20
22.3123
 30
0.0
 10
-6.0186999999999999
 20
22.3123
 30
0.0
  0
SPLINE
  5
51
100
AcDbEntity
  8
Layer 1
100
AcDbSpline
210
0.0
220
0.0
230
1.0
 70
     0
 71
     3
 72
    32
 73
    28
 74
     0
 42
0.0000000001
 43
0.0000000001
 40
0.0
 40
0.0
 40
0.0
 40
0.0
 40
0.1428571428571429
 40
0.1428571428571429
 40
0.1428571428571429
 40
0.1428571428571429
 40
0.2857142857142857
 40
0.2857142857142857
 40
0.2857142857142857
 40
0.2857142857142857
 40
0.4285714285714286
 40
0.4285714285714286
 40
0.4285714285714286
 40
0.4285714285714286
 40
0.5714285714285714
 40
0.5714285714285714
 40
0.5714285714285714
 40
0.5714285714285714
 40
0.7142857142857142
 40
0.7142857142857142
 40
0.7142857142857142
 40
0.7142857142857142
 40
0.857142857142857
 40
0.857142857142857
 40
0.857142857142857
 40
0.857142857142857
 40
1.0
 40
1.0
 40
1.0
 40
1.0
 10
-13.831200000000001
 20
33.448
 30
0.0
 10
-12.5054
 20
33.1768
 30
0.0
 10
-11.082000000000001
 20
33.202199999999998
 30
0.0
 10
-9.8536000000000001
 20
32.634399999999999
 30
0.0
 10
-9.8536000000000001
 20
32.634399999999999
 30
0.0
 10
-8.2225000000000001
 20
31.880299999999998
 30
0.0
 10
-6.6492000000000004
 20
30.875599999999999
 30
0.0
 10
-5.4240000000000004
 20
29.5608
 30
0.0
 10
-5.4240000000000004
 20
29.5608
 30
0.0
 10
-4.1886000000000001
 20
28.234999999999999
 30
0.0
 10
-2.9531000000000001
 20
26.909099999999999
 30
0.0
 10
-1.7176
 20
25.583200000000001
 30
0.0
 10
-1.7176
 20
25.583200000000001
 30
0.0
 10
-0.5424
 20
24.3779
 30
0.0
 10
0.6177
 20
23.157599999999999
 30
0.0
 10
1.8080000000000001
 20
21.967199999999998
 30
0.0
 10
1.8080000000000001
 20
21.967199999999998
 30
0.0
 10
2.9983
 20
20.776900000000001
 30
0.0
 10
4.1241000000000003
 20
19.511199999999999
 30
0.0
 10
5.4240000000000004
 20
18.441600000000001
 30
0.0
 10
5.4240000000000004
 20
18.441600000000001
 30
0.0
 10
7.0251000000000001
 20
17.123999999999999
 30
0.0
 10
8.4598999999999993
 20
15.266
 30
0.0
 10
10.4864
 20
14.8256
 30
0.0
 10
10.4864
 20
14.8256
 30
0.0
 10
10.4864
 20
14.8256
 30
0.0
 10
20.882400000000001
 20
12.5656
 30
0.0
 10
20.882400000000001
 20
12.5656
 30
0.0
  0
SPLINE
  5
52
100
AcDbEntity
  8
Layer 1
100
AcDbSpline
210
0.0
220
0.0
230
1.0
 70
     0
 71
     3
 72
    12
 73
     8
 74
     0
 42
0.0000000001
 43
0.0000000001
 40
0.0
 40
0.0
 40
0.0
 40
0.0
 40
0.5
 40
0.5
 40
0.5
 40
0.5
 40
1.0
 40
1.0
 40
1.0
 40
1.0
 10
-8.4770000000000003
 20
23.935500000000001
 30
0.0
 10
-8.3263999999999996
 20
23.453399999999998
 30
0.0
 10
-7.8667999999999996
 20
22.916399999999999
 30
0.0
 10
-7.9551999999999996
 20
22.4192
 30
0.0
 10
-7.9551999999999996
 20
22.4192
 30
0.0
 10
-8.1227
 20
21.476400000000002
 30
0.0
 10
-8.7385999999999999
 20
20.671500000000002
 30
0.0
 10
-9.1303999999999998
 20
19.797599999999999
 30
0.0
  0
SPLINE
  5
53
100
AcDbEntity
  8
Layer 1
100
AcDbSpline
210
0.0
220
0.0
230
1.0
 70
     0
 71
     3
 72
     8
 73
     4
 74
     0
 42
0.0000000001
 43
0.0000000001
 40
0.0
 40
0.0
 40
0.0
 40
0.0
 40
1.0
 40
1.0
 40
1.0
 40
1.0
 10
-17.447199999999999
 20
33.1768
 30
0.0
 10
-17.447199999999999
 20
33.1768
 30
0.0
 10
-13.9216
 20
31.640000000000001
 30
0.0
 10
-13.9216
 20
31.640000000000001
 30
0.0
  0
SPLINE
  5
54
100
AcDbEntity
  8
Layer 1
100
AcDbSpline
210
0.0
220
0.0
230
1.0
 70
     0
 71
     3
 72
     8
 73
     4
 74
     0
 42
0.0000000001
 43
0.0000000001
 40
0.0
 40
0.0
 40
0.0
 40
0.0
 40
1.0
 40
1.0
 40
1.0
 40
1.0
 10
-18.532
 20
31.459199999999999
 30
0.0
 10
-18.532
 20
31.459199999999999
 30
0.0
 10
-15.006399999999999
 20
29.9224
 30
0.0
 10
-15.006399999999999
 20
29.9224
 30
0.0
  0
SPLINE
  5
55
100
AcDbEntity
  8
Layer 1
100
AcDbSpline
210
0.0
220
0.0
230
1.0
 70
     1
 71
     3
 72
    92
 73
    88
 74
     0
 42
0.0000000001
 43
0.0000000001
 40
0.0
 40
0.0
 40
0.0
 40
0.0
 40
0.0454545454545455
 40
0.0454545454545455
 40
0.0454545454545455
 40
0.0454545454545455
 40
0.0909090909090909
 40
0.0909090909090909
 40
0.0909090909090909
 40
0.0909090909090909
 40
0.1363636363636364
 40
0.1363636363636364
 40
0.1363636363636364
 40
0.1363636363636364
 40
0.1818181818181818
 40
0.1818181818181818
 40
0.1818181818181818
 40
0.1818181818181818
 40
0.2272727272727273
 40
0.2272727272727273
 40
0.2272727272727273
 40
0.2272727272727273
 40
0.2727272727272728
 40
0.2727272727272728
 40
0.2727272727272728
 40
0.2727272727272728
 40
0.3181818181818182
 40
0.3181818181818182
 40
0.3181818181818182
 40
0.3181818181818182
 40
0.3636363636363637
 40
0.3636363636363637
 40
0.3636363636363637
 40
0.3636363636363637
 40
0.4090909090909092
 40
0.4090909090909092
 40
0.4090909090909092
 40
0.4090909090909092
 40
0.4545454545454546
 40
0.4545454545454546
 40
0.4545454545454546
 40
0.4545454545454546
 40
0.5000000000000001
 40
0.5000000000000001
 40
0.5000000000000001
 40
0.5000000000000001
 40
0.5454545454545455
 40
0.5454545454545455
 40
0.5454545454545455
 40
0.5454545454545455
 40
0.5909090909090909
 40
0.5909090909090909
 40
0.5909090909090909
 40
0.5909090909090909
 40
0.6363636363636364
 40
0.6363636363636364
 40
0.6363636363636364
 40
0.6363636363636364
 40
0.6818181818181818
 40
0.6818181818181818
 40
0.6818181818181818
 40
0.6818181818181818
 40
0.7272727272727272
 40
0.7272727272727272
 40
0.7272727272727272
 40
0.7272727272727272
 40
0.7727272727272726
 40
0.7727272727272726
 40
0.7727272727272726
 40
0.7727272727272726
 40
0.818181818181818
 40
0.818181818181818
 40
0.818181818181818
 40
0.818181818181818
 40
0.8636363636363634
 40
0.8636363636363634
 40
0.8636363636363634
 40
0.8636363636363634
 40
0.9090909090909088
 40
0.9090909090909088
 40
0.9090909090909088
 40
0.9090909090909088
 40
0.9545454545454543
 40
0.9545454545454543
 40
0.9545454545454543
 40
0.9545454545454543
 40
1.0
 40
1.0
 40
1.0
 40
1.0
 10
24.353000000000002
 20
-18.4815
 30
0.0
 10
24.353000000000002
 20
-18.4815
 30
0.0
 10
24.353000000000002
 20
-18.719999999999999
 30
0.0
 10
24.353000000000002
 20
-18.719999999999999
 30
0.0
 10
24.353000000000002
 20
-18.719999999999999
 30
0.0
 10
24.353000000000002
 20
-18.719999999999999
 30
0.0
 10
23.017600000000002
 20
-18.719999999999999
 30
0.0
 10
23.017600000000002
 20
-18.719999999999999
 30
0.0
 10
23.017600000000002
 20
-18.719999999999999
 30
0.0
 10
23.015699999999999
 20
-18.660299999999999
 30
0.0
 10
23.025099999999998
 20
-18.602900000000002
 30
0.0
 10
23.046299999999999
 20
-18.547799999999999
 30
0.0
 10
23.046299999999999
 20
-18.547799999999999
 30
0.0
 10
23.080200000000001
 20
-18.456600000000002
 30
0.0
 10
23.134699999999999
 20
-18.3672
 30
0.0
 10
23.209499999999998
 20
-18.2788
 30
0.0
 10
23.209499999999998
 20
-18.2788
 30
0.0
 10
23.284800000000001
 20
-18.190799999999999
 30
0.0
 10
23.393000000000001
 20
-18.088799999999999
 30
0.0
 10
23.534099999999999
 20
-17.973099999999999
 30
0.0
 10
23.534099999999999
 20
-17.973099999999999
 30
0.0
 10
23.753699999999998
 20
-17.792899999999999
 30
0.0
 10
23.9024
 20
-17.650400000000001
 30
0.0
 10
23.979500000000002
 20
-17.545000000000002
 30
0.0
 10
23.979500000000002
 20
-17.545000000000002
 30
0.0
 10
24.0566
 20
-17.440100000000001
 30
0.0
 10
24.095199999999998
 20
-17.340399999999999
 30
0.0
 10
24.095199999999998
 20
-17.2468
 30
0.0
 10
24.095199999999998
 20
-17.2468
 30
0.0
 10
24.095199999999998
 20
-17.148499999999999
 30
0.0
 10
24.059899999999999
 20
-17.0657
 30
0.0
 10
23.989899999999999
 20
-16.998000000000001
 30
0.0
 10
23.989899999999999
 20
-16.998000000000001
 30
0.0
 10
23.9193
 20
-16.930700000000002
 30
0.0
 10
23.8276
 20
-16.896899999999999
 30
0.0
 10
23.714700000000001
 20
-16.896899999999999
 30
0.0
 10
23.714700000000001
 20
-16.896899999999999
 30
0.0
 10
23.595199999999998
 20
-16.896899999999999
 30
0.0
 10
23.499700000000001
 20
-16.932600000000001
 30
0.0
 10
23.4282
 20
-17.0046
 30
0.0
 10
23.4282
 20
-17.0046
 30
0.0
 10
23.356300000000001
 20
-17.0761
 30
0.0
 10
23.3201
 20
-17.1753
 30
0.0
 10
23.319099999999999
 20
-17.3018
 30
0.0
 10
23.319099999999999
 20
-17.3018
 30
0.0
 10
23.319099999999999
 20
-17.3018
 30
0.0
 10
23.0642
 20
-17.276
 30
0.0
 10
23.0642
 20
-17.276
 30
0.0
 10
23.0642
 20
-17.276
 30
0.0
 10
23.081600000000002
 20
-17.0855
 30
0.0
 10
23.147400000000001
 20
-16.9406
 30
0.0
 10
23.261299999999999
 20
-16.840900000000001
 30
0.0
 10
23.261299999999999
 20
-16.840900000000001
 30
0.0
 10
23.3751
 20
-16.741199999999999
 30
0.0
 10
23.528400000000001
 20
-16.691299999999998
 30
0.0
 10
23.720300000000002
 20
-16.691299999999998
 30
0.0
 10
23.720300000000002
 20
-16.691299999999998
 30
0.0
 10
23.914100000000001
 20
-16.691299999999998
 30
0.0
 10
24.067499999999999
 20
-16.7454
 30
0.0
 10
24.180399999999999
 20
-16.852599999999999
 30
0.0
 10
24.180399999999999
 20
-16.852599999999999
 30
0.0
 10
24.293700000000001
 20
-16.9604
 30
0.0
 10
24.350200000000001
 20
-17.093499999999999
 30
0.0
 10
24.350200000000001
 20
-17.252500000000001
 30
0.0
 10
24.350200000000001
 20
-17.252500000000001
 30
0.0
 10
24.350200000000001
 20
-17.333400000000001
 30
0.0
 10
24.3337
 20
-17.4129
 30
0.0
 10
24.3003
 20
-17.4909
 30
0.0
 10
24.3003
 20
-17.4909
 30
0.0
 10
24.267399999999999
 20
-17.568999999999999
 30
0.0
 10
24.212299999999999
 20
-17.651299999999999
 30
0.0
 10
24.1357
 20
-17.737400000000001
 30
0.0
 10
24.1357
 20
-17.737400000000001
 30
0.0
 10
24.059000000000001
 20
-17.824000000000002
 30
0.0
 10
23.9315
 20
-17.942499999999999
 30
0.0
 10
23.753299999999999
 20
-18.093
 30
0.0
 10
23.753299999999999
 20
-18.093
 30
0.0
 10
23.604600000000001
 20
-18.2181
 30
0.0
 10
23.5091
 20
-18.302800000000001
 30
0.0
 10
23.466799999999999
 20
-18.3475
 30
0.0
 10
23.466799999999999
 20
-18.3475
 30
0.0
 10
23.424499999999998
 20
-18.3917
 30
0.0
 10
23.389700000000001
 20
-18.436399999999999
 30
0.0
 10
23.361899999999999
 20
-18.4815
 30
0.0
 10
23.361899999999999
 20
-18.4815
 30
0.0
 10
23.361899999999999
 20
-18.4815
 30
0.0
 10
24.353000000000002
 20
-18.4815
 30
0.0
 10
24.353000000000002
 20
-18.4815
 30
0.0
  0
SPLINE
  5
56
100
AcDbEntity
  8
Layer 1
100
AcDbSpline
210
0.0
220
0.0
230
1.0
 70
     1
 71
     3
 72
    52
 73
    48
 74
     0
 42
0.0000000001
 43
0.0000000001
 40
0.0
 40
0.0
 40
0.0
 40
0.0
 40
0.0833333333333333
 40
0.0833333333333333
 40
0.0833333333333333
 40
0.0833333333333333
 40
0.1666666666666667
 40
0.1666666666666667
 40
0.1666666666666667
 40
0.1666666666666667
 40
0.25
 40
0.25
 40
0.25
 40
0.25
 40
0.3333333333333333
 40
0.3333333333333333
 40
0.3333333333333333
 40
0.3333333333333333
 40
0.4166666666666666
 40
0.4166666666666666
 40
0.4166666666666666
 40
0.4166666666666666
 40
0.4999999999999999
 40
0.4999999999999999
 40
0.4999999999999999
 40
0.4999999999999999
 40
0.5833333333333333
 40
0.5833333333333333
 40
0.5833333333333333
 40
0.5833333333333333
 40
0.6666666666666666
 40
0.6666666666666666
 40
0.6666666666666666
 40
0.6666666666666666
 40
0.75
 40
0.75
 40
0.75
 40
0.75
 40
0.8333333333333334
 40
0.8333333333333334
 40
0.8333333333333334
 40
0.8333333333333334
 40
0.9166666666666667
 40
0.9166666666666667
 40
0.9166666666666667
 40
0.9166666666666667
 40
1.0
 40
1.0
 40
1.0
 40
1.0
 10
24.725000000000001
 20
-18.719999999999999
 30
0.0
 10
24.725000000000001
 20
-18.719999999999999
 30
0.0
 10
24.725000000000001
 20
-16.6998
 30
0.0
 10
24.725000000000001
 20
-16.6998
 30
0.0
 10
24.725000000000001
 20
-16.6998
 30
0.0
 10
24.725000000000001
 20
-16.6998
 30
0.0
 10
26.185500000000001
 20
-16.6998
 30
0.0
 10
26.185500000000001
 20
-16.6998
 30
0.0
 10
26.185500000000001
 20
-16.6998
 30
0.0
 10
26.185500000000001
 20
-16.6998
 30
0.0
 10
26.185500000000001
 20
-16.938300000000002
 30
0.0
 10
26.185500000000001
 20
-16.938300000000002
 30
0.0
 10
26.185500000000001
 20
-16.938300000000002
 30
0.0
 10
26.185500000000001
 20
-16.938300000000002
 30
0.0
 10
24.9922
 20
-16.938300000000002
 30
0.0
 10
24.9922
 20
-16.938300000000002
 30
0.0
 10
24.9922
 20
-16.938300000000002
 30
0.0
 10
24.9922
 20
-16.938300000000002
 30
0.0
 10
24.9922
 20
-17.556799999999999
 30
0.0
 10
24.9922
 20
-17.556799999999999
 30
0.0
 10
24.9922
 20
-17.556799999999999
 30
0.0
 10
24.9922
 20
-17.556799999999999
 30
0.0
 10
26.1098
 20
-17.556799999999999
 30
0.0
 10
26.1098
 20
-17.556799999999999
 30
0.0
 10
26.1098
 20
-17.556799999999999
 30
0.0
 10
26.1098
 20
-17.556799999999999
 30
0.0
 10
26.1098
 20
-17.793800000000001
 30
0.0
 10
26.1098
 20
-17.793800000000001
 30
0.0
 10
26.1098
 20
-17.793800000000001
 30
0.0
 10
26.1098
 20
-17.793800000000001
 30
0.0
 10
24.9922
 20
-17.793800000000001
 30
0.0
 10
24.9922
 20
-17.793800000000001
 30
0.0
 10
24.9922
 20
-17.793800000000001
 30
0.0
 10
24.9922
 20
-17.793800000000001
 30
0.0
 10
24.9922
 20
-18.4815
 30
0.0
 10
24.9922
 20
-18.4815
 30
0.0
 10
24.9922
 20
-18.4815
 30
0.0
 10
24.9922
 20
-18.4815
 30
0.0
 10
26.232500000000002
 20
-18.4815
 30
0.0
 10
26.232500000000002
 20
-18.4815
 30
0.0
 10
26.232500000000002
 20
-18.4815
 30
0.0
 10
26.232500000000002
 20
-18.4815
 30
0.0
 10
26.232500000000002
 20
-18.719999999999999
 30
0.0
 10
26.232500000000002
 20
-18.719999999999999
 30
0.0
 10
26.232500000000002
 20
-18.719999999999999
 30
0.0
 10
26.232500000000002
 20
-18.719999999999999
 30
0.0
 10
24.725000000000001
 20
-18.719999999999999
 30
0.0
 10
24.725000000000001
 20
-18.719999999999999
 30
0.0
  0
SPLINE
  5
57
100
AcDbEntity
  8
Layer 1
100
AcDbSpline
210
0.0
220
0.0
230
1.0
 70
     1
 71
     3
 72
    92
 73
    88
 74
     0
 42
0.0000000001
 43
0.0000000001
 40
0.0
 40
0.0
 40
0.0
 40
0.0
 40
0.0454545454545455
 40
0.0454545454545455
 40
0.0454545454545455
 40
0.0454545454545455
 40
0.0909090909090909
 40
0.0909090909090909
 40
0.0909090909090909
 40
0.0909090909090909
 40
0.1363636363636364
 40
0.1363636363636364
 40
0.1363636363636364
 40
0.1363636363636364
 40
0.1818181818181818
 40
0.1818181818181818
 40
0.1818181818181818
 40
0.1818181818181818
 40
0.2272727272727273
 40
0.2272727272727273
 40
0.2272727272727273
 40
0.2272727272727273
 40
0.2727272727272728
 40
0.2727272727272728
 40
0.2727272727272728
 40
0.2727272727272728
 40
0.3181818181818182
 40
0.3181818181818182
 40
0.3181818181818182
 40
0.3181818181818182
 40
0.3636363636363637
 40
0.3636363636363637
 40
0.3636363636363637
 40
0.3636363636363637
 40
0.4090909090909092
 40
0.4090909090909092
 40
0.4090909090909092
 40
0.4090909090909092
 40
0.4545454545454546
 40
0.4545454545454546
 40
0.4545454545454546
 40
0.4545454545454546
 40
0.5000000000000001
 40
0.5000000000000001
 40
0.5000000000000001
 40
0.5000000000000001
 40
0.5454545454545455
 40
0.5454545454545455
 40
0.5454545454545455
 40
0.5454545454545455
 40
0.5909090909090909
 40
0.5909090909090909
 40
0.5909090909090909
 40
0.5909090909090909
 40
0.6363636363636364
 40
0.6363636363636364
 40
0.6363636363636364
 40
0.6363636363636364
 40
0.6818181818181818
 40
0.6818181818181818
 40
0.6818181818181818
 40
0.6818181818181818
 40
0.7272727272727272
 40
0.7272727272727272
 40
0.7272727272727272
 40
0.7272727272727272
 40
0.7727272727272726
 40
0.7727272727272726
 40
0.7727272727272726
 40
0.7727272727272726
 40
0.818181818181818
 40
0.818181818181818
 40
0.818181818181818
 40
0.818181818181818
 40
0.8636363636363634
 40
0.8636363636363634
 40
0.8636363636363634
 40
0.8636363636363634
 40
0.9090909090909088
 40
0.9090909090909088
 40
0.9090909090909088
 40
0.9090909090909088
 40
0.9545454545454543
 40
0.9545454545454543
 40
0.9545454545454543
 40
0.9545454545454543
 40
1.0
 40
1.0
 40
1.0
 40
1.0
 10
26.5383
 20
-18.2529
 30
0.0
 10
26.5383
 20
-18.2529
 30
0.0
 10
26.776800000000001
 20
-18.230799999999999
 30
0.0
 10
26.776800000000001
 20
-18.230799999999999
 30
0.0
 10
26.776800000000001
 20
-18.230799999999999
 30
0.0
 10
26.797000000000001
 20
-18.3428
 30
0.0
 10
26.835599999999999
 20
-18.424099999999999
 30
0.0
 10
26.892499999999998
 20
-18.474900000000002
 30
0.0
 10
26.892499999999998
 20
-18.474900000000002
 30
0.0
 10
26.949400000000001
 20
-18.525300000000001
 30
0.0
 10
27.022300000000001
 20
-18.550699999999999
 30
0.0
 10
27.111699999999999
 20
-18.550699999999999
 30
0.0
 10
27.111699999999999
 20
-18.550699999999999
 30
0.0
 10
27.187899999999999
 20
-18.550699999999999
 30
0.0
 10
27.2546
 20
-18.533300000000001
 30
0.0
 10
27.312000000000001
 20
-18.498000000000001
 30
0.0
 10
27.312000000000001
 20
-18.498000000000001
 30
0.0
 10
27.369399999999999
 20
-18.463200000000001
 30
0.0
 10
27.416499999999999
 20
-18.416599999999999
 30
0.0
 10
27.453099999999999
 20
-18.3583
 30
0.0
 10
27.453099999999999
 20
-18.3583
 30
0.0
 10
27.490300000000001
 20
-18.300000000000001
 30
0.0
 10
27.520900000000001
 20
-18.2209
 30
0.0
 10
27.5458
 20
-18.122199999999999
 30
0.0
 10
27.5458
 20
-18.122199999999999
 30
0.0
 10
27.5703
 20
-18.0229
 30
0.0
 10
27.582999999999998
 20
-17.921800000000001
 30
0.0
 10
27.582999999999998
 20
-17.8188
 30
0.0
 10
27.582999999999998
 20
-17.8188
 30
0.0
 10
27.582999999999998
 20
-17.808
 30
0.0
 10
27.5825
 20
-17.791
 30
0.0
 10
27.581600000000002
 20
-17.769400000000001
 30
0.0
 10
27.581600000000002
 20
-17.769400000000001
 30
0.0
 10
27.531700000000001
 20
-17.847899999999999
 30
0.0
 10
27.463999999999999
 20
-17.912400000000002
 30
0.0
 10
27.378399999999999
 20
-17.961300000000001
 30
0.0
 10
27.378399999999999
 20
-17.961300000000001
 30
0.0
 10
27.292300000000001
 20
-18.0107
 30
0.0
 10
27.199100000000001
 20
-18.0351
 30
0.0
 10
27.099399999999999
 20
-18.0351
 30
0.0
 10
27.099399999999999
 20
-18.0351
 30
0.0
 10
26.931999999999999
 20
-18.0351
 30
0.0
 10
26.790400000000002
 20
-17.974499999999999
 30
0.0
 10
26.674700000000001
 20
-17.853100000000001
 30
0.0
 10
26.674700000000001
 20
-17.853100000000001
 30
0.0
 10
26.559000000000001
 20
-17.7318
 30
0.0
 10
26.501100000000001
 20
-17.572299999999998
 30
0.0
 10
26.501100000000001
 20
-17.373799999999999
 30
0.0
 10
26.501100000000001
 20
-17.373799999999999
 30
0.0
 10
26.501100000000001
 20
-17.168700000000001
 30
0.0
 10
26.561299999999999
 20
-17.004100000000001
 30
0.0
 10
26.682200000000002
 20
-16.879000000000001
 30
0.0
 10
26.682200000000002
 20
-16.879000000000001
 30
0.0
 10
26.803100000000001
 20
-16.753900000000002
 30
0.0
 10
26.954599999999999
 20
-16.691299999999998
 30
0.0
 10
27.136600000000001
 20
-16.691299999999998
 30
0.0
 10
27.136600000000001
 20
-16.691299999999998
 30
0.0
 10
27.267800000000001
 20
-16.691299999999998
 30
0.0
 10
27.387799999999999
 20
-16.7271
 30
0.0
 10
27.4969
 20
-16.797599999999999
 30
0.0
 10
27.4969
 20
-16.797599999999999
 30
0.0
 10
27.605499999999999
 20
-16.868200000000002
 30
0.0
 10
27.688300000000002
 20
-16.9693
 30
0.0
 10
27.744800000000001
 20
-17.100100000000001
 30
0.0
 10
27.744800000000001
 20
-17.100100000000001
 30
0.0
 10
27.801200000000001
 20
-17.230799999999999
 30
0.0
 10
27.8294
 20
-17.420400000000001
 30
0.0
 10
27.8294
 20
-17.668700000000001
 30
0.0
 10
27.8294
 20
-17.668700000000001
 30
0.0
 10
27.8294
 20
-17.926500000000001
 30
0.0
 10
27.8017
 20
-18.132000000000001
 30
0.0
 10
27.745699999999999
 20
-18.285399999999999
 30
0.0
 10
27.745699999999999
 20
-18.285399999999999
 30
0.0
 10
27.689299999999999
 20
-18.438300000000002
 30
0.0
 10
27.606000000000002
 20
-18.554400000000001
 30
0.0
 10
27.4955
 20
-18.634399999999999
 30
0.0
 10
27.4955
 20
-18.634399999999999
 30
0.0
 10
27.384499999999999
 20
-18.714400000000001
 30
0.0
 10
27.255099999999999
 20
-18.754300000000001
 30
0.0
 10
27.106000000000002
 20
-18.754300000000001
 30
0.0
 10
27.106000000000002
 20
-18.754300000000001
 30
0.0
 10
26.948
 20
-18.754300000000001
 30
0.0
 10
26.819099999999999
 20
-18.710599999999999
 30
0.0
 10
26.718900000000001
 20
-18.622599999999998
 30
0.0
 10
26.718900000000001
 20
-18.622599999999998
 30
0.0
 10
26.6187
 20
-18.5351
 30
0.0
 10
26.558499999999999
 20
-18.411899999999999
 30
0.0
 10
26.5383
 20
-18.2529
 30
0.0
  0
SPLINE
  5
58
100
AcDbEntity
  8
Layer 1
100
AcDbSpline
210
0.0
220
0.0
230
1.0
 70
     1
 71
     3
 72
    36
 73
    32
 74
     0
 42
0.0000000001
 43
0.0000000001
 40
0.0
 40
0.0
 40
0.0
 40
0.0
 40
0.125
 40
0.125
 40
0.125
 40
0.125
 40
0.25
 40
0.25
 40
0.25
 40
0.25
 40
0.375
 40
0.375
 40
0.375
 40
0.375
 40
0.5
 40
0.5
 40
0.5
 40
0.5
 40
0.625
 40
0.625
 40
0.625
 40
0.625
 40
0.75
 40
0.75
 40
0.75
 40
0.75
 40
0.875
 40
0.875
 40
0.875
 40
0.875
 40
1.0
 40
1.0
 40
1.0
 40
1.0
 10
27.553799999999999
 20
-17.3611
 30
0.0
 10
27.553799999999999
 20
-17.219100000000001
 30
0.0
 10
27.516200000000001
 20
-17.105699999999999
 30
0.0
 10
27.4404
 20
-17.022400000000001
 30
0.0
 10
27.4404
 20
-17.022400000000001
 30
0.0
 10
27.3642
 20
-16.938700000000001
 30
0.0
 10
27.273499999999999
 20
-16.896899999999999
 30
0.0
 10
27.166699999999999
 20
-16.896899999999999
 30
0.0
 10
27.166699999999999
 20
-16.896899999999999
 30
0.0
 10
27.0566
 20
-16.896899999999999
 30
0.0
 10
26.960699999999999
 20
-16.942
 30
0.0
 10
26.878799999999998
 20
-17.0319
 30
0.0
 10
26.878799999999998
 20
-17.0319
 30
0.0
 10
26.797000000000001
 20
-17.122199999999999
 30
0.0
 10
26.7561
 20
-17.238800000000001
 30
0.0
 10
26.7561
 20
-17.381799999999998
 30
0.0
 10
26.7561
 20
-17.381799999999998
 30
0.0
 10
26.7561
 20
-17.5107
 30
0.0
 10
26.795100000000001
 20
-17.615100000000002
 30
0.0
 10
26.872699999999998
 20
-17.695499999999999
 30
0.0
 10
26.872699999999998
 20
-17.695499999999999
 30
0.0
 10
26.950299999999999
 20
-17.776
 30
0.0
 10
27.0458
 20
-17.815999999999999
 30
0.0
 10
27.159600000000001
 20
-17.815999999999999
 30
0.0
 10
27.159600000000001
 20
-17.815999999999999
 30
0.0
 10
27.274899999999999
 20
-17.815999999999999
 30
0.0
 10
27.3689
 20
-17.776
 30
0.0
 10
27.442799999999998
 20
-17.695499999999999
 30
0.0
 10
27.442799999999998
 20
-17.695499999999999
 30
0.0
 10
27.517099999999999
 20
-17.615100000000002
 30
0.0
 10
27.553799999999999
 20
-17.503599999999999
 30
0.0
 10
27.553799999999999
 20
-17.3611
 30
0.0
  0
SPLINE
  5
59
100
AcDbEntity
  8
Layer 1
100
AcDbSpline
210
0.0
220
0.0
230
1.0
 70
     1
 71
     3
 72
    92
 73
    88
 74
     0
 42
0.0000000001
 43
0.0000000001
 40
0.0
 40
0.0
 40
0.0
 40
0.0
 40
0.0454545454545455
 40
0.0454545454545455
 40
0.0454545454545455
 40
0.0454545454545455
 40
0.0909090909090909
 40
0.0909090909090909
 40
0.0909090909090909
 40
0.0909090909090909
 40
0.1363636363636364
 40
0.1363636363636364
 40
0.1363636363636364
 40
0.1363636363636364
 40
0.1818181818181818
 40
0.1818181818181818
 40
0.1818181818181818
 40
0.1818181818181818
 40
0.2272727272727273
 40
0.2272727272727273
 40
0.2272727272727273
 40
0.2272727272727273
 40
0.2727272727272728
 40
0.2727272727272728
 40
0.2727272727272728
 40
0.2727272727272728
 40
0.3181818181818182
 40
0.3181818181818182
 40
0.3181818181818182
 40
0.3181818181818182
 40
0.3636363636363637
 40
0.3636363636363637
 40
0.3636363636363637
 40
0.3636363636363637
 40
0.4090909090909092
 40
0.4090909090909092
 40
0.4090909090909092
 40
0.4090909090909092
 40
0.4545454545454546
 40
0.4545454545454546
 40
0.4545454545454546
 40
0.4545454545454546
 40
0.5000000000000001
 40
0.5000000000000001
 40
0.5000000000000001
 40
0.5000000000000001
 40
0.5454545454545455
 40
0.5454545454545455
 40
0.5454545454545455
 40
0.5454545454545455
 40
0.5909090909090909
 40
0.5909090909090909
 40
0.5909090909090909
 40
0.5909090909090909
 40
0.6363636363636364
 40
0.6363636363636364
 40
0.6363636363636364
 40
0.6363636363636364
 40
0.6818181818181818
 40
0.6818181818181818
 40
0.6818181818181818
 40
0.6818181818181818
 40
0.7272727272727272
 40
0.7272727272727272
 40
0.7272727272727272
 40
0.7272727272727272
 40
0.7727272727272726
 40
0.7727272727272726
 40
0.7727272727272726
 40
0.7727272727272726
 40
0.818181818181818
 40
0.818181818181818
 40
0.818181818181818
 40
0.818181818181818
 40
0.8636363636363634
 40
0.8636363636363634
 40
0.8636363636363634
 40
0.8636363636363634
 40
0.9090909090909088
 40
0.9090909090909088
 40
0.9090909090909088
 40
0.9090909090909088
 40
0.9545454545454543
 40
0.9545454545454543
 40
0.9545454545454543
 40
0.9545454545454543
 40
1.0
 40
1.0
 40
1.0
 40
1.0
 10
28.107900000000001
 20
-18.2529
 30
0.0
 10
28.107900000000001
 20
-18.2529
 30
0.0
 10
28.346399999999999
 20
-18.230799999999999
 30
0.0
 10
28.346399999999999
 20
-18.230799999999999
 30
0.0
 10
28.346399999999999
 20
-18.230799999999999
 30
0.0
 10
28.366599999999998
 20
-18.3428
 30
0.0
 10
28.405200000000001
 20
-18.424099999999999
 30
0.0
 10
28.4621
 20
-18.474900000000002
 30
0.0
 10
28.4621
 20
-18.474900000000002
 30
0.0
 10
28.518999999999998
 20
-18.525300000000001
 30
0.0
 10
28.591899999999999
 20
-18.550699999999999
 30
0.0
 10
28.6813
 20
-18.550699999999999
 30
0.0
 10
28.6813
 20
-18.550699999999999
 30
0.0
 10
28.7575
 20
-18.550699999999999
 30
0.0
 10
28.824200000000001
 20
-18.533300000000001
 30
0.0
 10
28.881599999999999
 20
-18.498000000000001
 30
0.0
 10
28.881599999999999
 20
-18.498000000000001
 30
0.0
 10
28.939
 20
-18.463200000000001
 30
0.0
 10
28.9861
 20
-18.416599999999999
 30
0.0
 10
29.0227
 20
-18.3583
 30
0.0
 10
29.0227
 20
-18.3583
 30
0.0
 10
29.059899999999999
 20
-18.300000000000001
 30
0.0
 10
29.090499999999999
 20
-18.2209
 30
0.0
 10
29.115400000000001
 20
-18.122199999999999
 30
0.0
 10
29.115400000000001
 20
-18.122199999999999
 30
0.0
 10
29.139900000000001
 20
-18.0229
 30
0.0
 10
29.1526
 20
-17.921800000000001
 30
0.0
 10
29.1526
 20
-17.8188
 30
0.0
 10
29.1526
 20
-17.8188
 30
0.0
 10
29.1526
 20
-17.808
 30
0.0
 10
29.152100000000001
 20
-17.791
 30
0.0
 10
29.151199999999999
 20
-17.769400000000001
 30
0.0
 10
29.151199999999999
 20
-17.769400000000001
 30
0.0
 10
29.101299999999998
 20
-17.847899999999999
 30
0.0
 10
29.0336
 20
-17.912400000000002
 30
0.0
 10
28.948
 20
-17.961300000000001
 30
0.0
 10
28.948
 20
-17.961300000000001
 30
0.0
 10
28.861899999999999
 20
-18.0107
 30
0.0
 10
28.768699999999999
 20
-18.0351
 30
0.0
 10
28.669
 20
-18.0351
 30
0.0
 10
28.669
 20
-18.0351
 30
0.0
 10
28.5016
 20
-18.0351
 30
0.0
 10
28.359999999999999
 20
-17.974499999999999
 30
0.0
 10
28.244299999999999
 20
-17.853100000000001
 30
0.0
 10
28.244299999999999
 20
-17.853100000000001
 30
0.0
 10
28.128599999999999
 20
-17.7318
 30
0.0
 10
28.070699999999999
 20
-17.572299999999998
 30
0.0
 10
28.070699999999999
 20
-17.373799999999999
 30
0.0
 10
28.070699999999999
 20
-17.373799999999999
 30
0.0
 10
28.070699999999999
 20
-17.168700000000001
 30
0.0
 10
28.1309
 20
-17.004100000000001
 30
0.0
 10
28.251799999999999
 20
-16.879000000000001
 30
0.0
 10
28.251799999999999
 20
-16.879000000000001
 30
0.0
 10
28.372699999999998
 20
-16.753900000000002
 30
0.0
 10
28.5242
 20
-16.691299999999998
 30
0.0
 10
28.706199999999999
 20
-16.691299999999998
 30
0.0
 10
28.706199999999999
 20
-16.691299999999998
 30
0.0
 10
28.837399999999999
 20
-16.691299999999998
 30
0.0
 10
28.9574
 20
-16.7271
 30
0.0
 10
29.066500000000001
 20
-16.797599999999999
 30
0.0
 10
29.066500000000001
 20
-16.797599999999999
 30
0.0
 10
29.1751
 20
-16.868200000000002
 30
0.0
 10
29.257899999999999
 20
-16.9693
 30
0.0
 10
29.314399999999999
 20
-17.100100000000001
 30
0.0
 10
29.314399999999999
 20
-17.100100000000001
 30
0.0
 10
29.370799999999999
 20
-17.230799999999999
 30
0.0
 10
29.399000000000001
 20
-17.420400000000001
 30
0.0
 10
29.399000000000001
 20
-17.668700000000001
 30
0.0
 10
29.399000000000001
 20
-17.668700000000001
 30
0.0
 10
29.399000000000001
 20
-17.926500000000001
 30
0.0
 10
29.371300000000002
 20
-18.132000000000001
 30
0.0
 10
29.315300000000001
 20
-18.285399999999999
 30
0.0
 10
29.315300000000001
 20
-18.285399999999999
 30
0.0
 10
29.258900000000001
 20
-18.438300000000002
 30
0.0
 10
29.175599999999999
 20
-18.554400000000001
 30
0.0
 10
29.065100000000001
 20
-18.634399999999999
 30
0.0
 10
29.065100000000001
 20
-18.634399999999999
 30
0.0
 10
28.9541
 20
-18.714400000000001
 30
0.0
 10
28.8247
 20
-18.754300000000001
 30
0.0
 10
28.675599999999999
 20
-18.754300000000001
 30
0.0
 10
28.675599999999999
 20
-18.754300000000001
 30
0.0
 10
28.517600000000002
 20
-18.754300000000001
 30
0.0
 10
28.3887
 20
-18.710599999999999
 30
0.0
 10
28.288499999999999
 20
-18.622599999999998
 30
0.0
 10
28.288499999999999
 20
-18.622599999999998
 30
0.0
 10
28.188300000000002
 20
-18.5351
 30
0.0
 10
28.1281
 20
-18.411899999999999
 30
0.0
 10
28.107900000000001
 20
-18.2529
 30
0.0
  0
SPLINE
  5
5A
100
AcDbEntity
  8
Layer 1
100
AcDbSpline
210
0.0
220
0.0
230
1.0
 70
     1
 71
     3
 72
    36
 73
    32
 74
     0
 42
0.0000000001
 43
0.0000000001
 40
0.0
 40
0.0
 40
0.0
 40
0.0
 40
0.125
 40
0.125
 40
0.125
 40
0.125
 40
0.25
 40
0.25
 40
0.25
 40
0.25
 40
0.375
 40
0.375
 40
0.375
 40
0.375
 40
0.5
 40
0.5
 40
0.5
 40
0.5
 40
0.625
 40
0.625
 40
0.625
 40
0.625
 40
0.75
 40
0.75
 40
0.75
 40
0.75
 40
0.875
 40
0.875
 40
0.875
 40
0.875
 40
1.0
 40
1.0
 40
1.0
 40
1.0
 10
29.1234
 20
-17.3611
 30
0.0
 10
29.1234
 20
-17.219100000000001
 30
0.0
 10
29.085799999999999
 20
-17.105699999999999
 30
0.0
 10
29.010000000000002
 20
-17.022400000000001
 30
0.0
 10
29.010000000000002
 20
-17.022400000000001
 30
0.0
 10
28.933800000000002
 20
-16.938700000000001
 30
0.0
 10
28.8431
 20
-16.896899999999999
 30
0.0
 10
28.7363
 20
-16.896899999999999
 30
0.0
 10
28.7363
 20
-16.896899999999999
 30
0.0
 10
28.626200000000001
 20
-16.896899999999999
 30
0.0
 10
28.5303
 20
-16.942
 30
0.0
 10
28.448399999999999
 20
-17.0319
 30
0.0
 10
28.448399999999999
 20
-17.0319
 30
0.0
 10
28.366599999999998
 20
-17.122199999999999
 30
0.0
 10
28.325700000000001
 20
-17.238800000000001
 30
0.0
 10
28.325700000000001
 20
-17.381799999999998
 30
0.0
 10
28.325700000000001
 20
-17.381799999999998
 30
0.0
 10
28.325700000000001
 20
-17.5107
 30
0.0
 10
28.364699999999999
 20
-17.615100000000002
 30
0.0
 10
28.442299999999999
 20
-17.695499999999999
 30
0.0
 10
28.442299999999999
 20
-17.695499999999999
 30
0.0
 10
28.5199
 20
-17.776
 30
0.0
 10
28.615400000000001
 20
-17.815999999999999
 30
0.0
 10
28.729199999999999
 20
-17.815999999999999
 30
0.0
 10
28.729199999999999
 20
-17.815999999999999
 30
0.0
 10
28.8445
 20
-17.815999999999999
 30
0.0
 10
28.938500000000001
 20
-17.776
 30
0.0
 10
29.0124
 20
-17.695499999999999
 30
0.0
 10
29.0124
 20
-17.695499999999999
 30
0.0
 10
29.0867
 20
-17.615100000000002
 30
0.0
 10
29.1234
 20
-17.503599999999999
 30
0.0
 10
29.1234
 20
-17.3611
 30
0.0
  0
SPLINE
  5
5B
100
AcDbEntity
  8
Layer 1
100
AcDbSpline
210
0.0
220
0.0
230
1.0
 70
     1
 71
     3
 72
    92
 73
    88
 74
     0
 42
0.0000000001
 43
0.0000000001
 40
0.0
 40
0.0
 40
0.0
 40
0.0
 40
0.0454545454545455
 40
0.0454545454545455
 40
0.0454545454545455
 40
0.0454545454545455
 40
0.0909090909090909
 40
0.0909090909090909
 40
0.0909090909090909
 40
0.0909090909090909
 40
0.1363636363636364
 40
0.1363636363636364
 40
0.1363636363636364
 40
0.1363636363636364
 40
0.1818181818181818
 40
0.1818181818181818
 40
0.1818181818181818
 40
0.1818181818181818
 40
0.2272727272727273
 40
0.2272727272727273
 40
0.2272727272727273
 40
0.2272727272727273
 40
0.2727272727272728
 40
0.2727272727272728
 40
0.2727272727272728
 40
0.2727272727272728
 40
0.3181818181818182
 40
0.3181818181818182
 40
0.3181818181818182
 40
0.3181818181818182
 40
0.3636363636363637
 40
0.3636363636363637
 40
0.3636363636363637
 40
0.3636363636363637
 40
0.4090909090909092
 40
0.4090909090909092
 40
0.4090909090909092
 40
0.4090909090909092
 40
0.4545454545454546
 40
0.4545454545454546
 40
0.4545454545454546
 40
0.4545454545454546
 40
0.5000000000000001
 40
0.5000000000000001
 40
0.5000000000000001
 40
0.5000000000000001
 40
0.5454545454545455
 40
0.5454545454545455
 40
0.5454545454545455
 40
0.5454545454545455
 40
0.5909090909090909
 40
0.5909090909090909
 40
0.5909090909090909
 40
0.5909090909090909
 40
0.6363636363636364
 40
0.6363636363636364
 40
0.6363636363636364
 40
0.6363636363636364
 40
0.6818181818181818
 40
0.6818181818181818
 40
0.6818181818181818
 40
0.6818181818181818
 40
0.7272727272727272
 40
0.7272727272727272
 40
0.7272727272727272
 40
0.7272727272727272
 40
0.7727272727272726
 40
0.7727272727272726
 40
0.7727272727272726
 40
0.7727272727272726
 40
0.818181818181818
 40
0.818181818181818
 40
0.818181818181818
 40
0.818181818181818
 40
0.8636363636363634
 40
0.8636363636363634
 40
0.8636363636363634
 40
0.8636363636363634
 40
0.9090909090909088
 40
0.9090909090909088
 40
0.9090909090909088
 40
0.9090909090909088
 40
0.9545454545454543
 40
0.9545454545454543
 40
0.9545454545454543
 40
0.9545454545454543
 40
1.0
 40
1.0
 40
1.0
 40
1.0
 10
-38.642499999999998
 20
43.863999999999997
 30
0.0
 10
-38.642499999999998
 20
43.863999999999997
 30
0.0
 10
-38.404000000000003
 20
43.863999999999997
 30
0.0
 10
-38.404000000000003
 20
43.863999999999997
 30
0.0
 10
-38.404000000000003
 20
43.863999999999997
 30
0.0
 10
-38.404000000000003
 20
43.863999999999997
 30
0.0
 10
-38.404000000000003
 20
42.528599999999997
 30
0.0
 10
-38.404000000000003
 20
42.528599999999997
 30
0.0
 10
-38.404000000000003
 20
42.528599999999997
 30
0.0
 10
-38.463700000000003
 20
42.526699999999998
 30
0.0
 10
-38.521099999999997
 20
42.536099999999998
 30
0.0
 10
-38.5762
 20
42.557299999999998
 30
0.0
 10
-38.5762
 20
42.557299999999998
 30
0.0
 10
-38.667400000000001
 20
42.591200000000001
 30
0.0
 10
-38.756799999999998
 20
42.645699999999998
 30
0.0
 10
-38.844700000000003
 20
42.720500000000001
 30
0.0
 10
-38.844700000000003
 20
42.720500000000001
 30
0.0
 10
-38.933199999999999
 20
42.7958
 30
0.0
 10
-39.035200000000003
 20
42.904000000000003
 30
0.0
 10
-39.1509
 20
43.045099999999998
 30
0.0
 10
-39.1509
 20
43.045099999999998
 30
0.0
 10
-39.331099999999999
 20
43.264699999999998
 30
0.0
 10
-39.473599999999998
 20
43.413400000000003
 30
0.0
 10
-39.579000000000001
 20
43.490499999999997
 30
0.0
 10
-39.579000000000001
 20
43.490499999999997
 30
0.0
 10
-39.683900000000001
 20
43.567599999999999
 30
0.0
 10
-39.7836
 20
43.606200000000001
 30
0.0
 10
-39.877200000000002
 20
43.606200000000001
 30
0.0
 10
-39.877200000000002
 20
43.606200000000001
 30
0.0
 10
-39.975499999999997
 20
43.606200000000001
 30
0.0
 10
-40.058300000000003
 20
43.570900000000002
 30
0.0
 10
-40.125999999999998
 20
43.500900000000001
 30
0.0
 10
-40.125999999999998
 20
43.500900000000001
 30
0.0
 10
-40.193300000000001
 20
43.430300000000003
 30
0.0
 10
-40.2271
 20
43.3386
 30
0.0
 10
-40.2271
 20
43.225700000000003
 30
0.0
 10
-40.2271
 20
43.225700000000003
 30
0.0
 10
-40.2271
 20
43.106200000000001
 30
0.0
 10
-40.191400000000002
 20
43.0107
 30
0.0
 10
-40.119399999999999
 20
42.9392
 30
0.0
 10
-40.119399999999999
 20
42.9392
 30
0.0
 10
-40.047899999999998
 20
42.8673
 30
0.0
 10
-39.948700000000002
 20
42.831099999999999
 30
0.0
 10
-39.822200000000002
 20
42.830100000000002
 30
0.0
 10
-39.822200000000002
 20
42.830100000000002
 30
0.0
 10
-39.822200000000002
 20
42.830100000000002
 30
0.0
 10
-39.847999999999999
 20
42.575200000000002
 30
0.0
 10
-39.847999999999999
 20
42.575200000000002
 30
0.0
 10
-39.847999999999999
 20
42.575200000000002
 30
0.0
 10
-40.038499999999999
 20
42.592599999999997
 30
0.0
 10
-40.183399999999999
 20
42.6584
 30
0.0
 10
-40.283099999999997
 20
42.772300000000001
 30
0.0
 10
-40.283099999999997
 20
42.772300000000001
 30
0.0
 10
-40.382800000000003
 20
42.886099999999999
 30
0.0
 10
-40.432200000000002
 20
43.039400000000001
 30
0.0
 10
-40.432200000000002
 20
43.231299999999997
 30
0.0
 10
-40.432200000000002
 20
43.231299999999997
 30
0.0
 10
-40.432200000000002
 20
43.4251
 30
0.0
 10
-40.378599999999999
 20
43.578499999999998
 30
0.0
 10
-40.2714
 20
43.691400000000002
 30
0.0
 10
-40.2714
 20
43.691400000000002
 30
0.0
 10
-40.163600000000002
 20
43.804699999999997
 30
0.0
 10
-40.030500000000004
 20
43.861199999999997
 30
0.0
 10
-39.871499999999997
 20
43.861199999999997
 30
0.0
 10
-39.871499999999997
 20
43.861199999999997
 30
0.0
 10
-39.790599999999998
 20
43.861199999999997
 30
0.0
 10
-39.711100000000002
 20
43.844700000000003
 30
0.0
 10
-39.633099999999999
 20
43.811300000000003
 30
0.0
 10
-39.633099999999999
 20
43.811300000000003
 30
0.0
 10
-39.555
 20
43.778399999999998
 30
0.0
 10
-39.472700000000003
 20
43.723300000000002
 30
0.0
 10
-39.386600000000001
 20
43.646700000000003
 30
0.0
 10
-39.386600000000001
 20
43.646700000000003
 30
0.0
 10
-39.299999999999997
 20
43.57
 30
0.0
 10
-39.1815
 20
43.442500000000003
 30
0.0
 10
-39.030999999999999
 20
43.264299999999999
 30
0.0
 10
-39.030999999999999
 20
43.264299999999999
 30
0.0
 10
-38.905900000000003
 20
43.115600000000001
 30
0.0
 10
-38.821199999999997
 20
43.020099999999999
 30
0.0
 10
-38.776499999999999
 20
42.977800000000002
 30
0.0
 10
-38.776499999999999
 20
42.977800000000002
 30
0.0
 10
-38.732300000000002
 20
42.935499999999998
 30
0.0
 10
-38.687600000000003
 20
42.900700000000001
 30
0.0
 10
-38.642499999999998
 20
42.872900000000001
 30
0.0
 10
-38.642499999999998
 20
42.872900000000001
 30
0.0
 10
-38.642499999999998
 20
42.872900000000001
 30
0.0
 10
-38.642499999999998
 20
43.863999999999997
 30
0.0
 10
-38.642499999999998
 20
43.863999999999997
 30
0.0
  0
SPLINE
  5
5C
100
AcDbEntity
  8
Layer 1
100
AcDbSpline
210
0.0
220
0.0
230
1.0
 70
     1
 71
     3
 72
    52
 73
    48
 74
     0
 42
0.0000000001
 43
0.0000000001
 40
0.0
 40
0.0
 40
0.0
 40
0.0
 40
0.0833333333333333
 40
0.0833333333333333
 40
0.0833333333333333
 40
0.0833333333333333
 40
0.1666666666666667
 40
0.1666666666666667
 40
0.1666666666666667
 40
0.1666666666666667
 40
0.25
 40
0.25
 40
0.25
 40
0.25
 40
0.3333333333333333
 40
0.3333333333333333
 40
0.3333333333333333
 40
0.3333333333333333
 40
0.4166666666666666
 40
0.4166666666666666
 40
0.4166666666666666
 40
0.4166666666666666
 40
0.4999999999999999
 40
0.4999999999999999
 40
0.4999999999999999
 40
0.4999999999999999
 40
0.5833333333333333
 40
0.5833333333333333
 40
0.5833333333333333
 40
0.5833333333333333
 40
0.6666666666666666
 40
0.6666666666666666
 40
0.6666666666666666
 40
0.6666666666666666
 40
0.75
 40
0.75
 40
0.75
 40
0.75
 40
0.8333333333333334
 40
0.8333333333333334
 40
0.8333333333333334
 40
0.8333333333333334
 40
0.9166666666666667
 40
0.9166666666666667
 40
0.9166666666666667
 40
0.9166666666666667
 40
1.0
 40
1.0
 40
1.0
 40
1.0
 10
-38.404000000000003
 20
44.235999999999997
 30
0.0
 10
-38.404000000000003
 20
44.235999999999997
 30
0.0
 10
-40.424199999999999
 20
44.235999999999997
 30
0.0
 10
-40.424199999999999
 20
44.235999999999997
 30
0.0
 10
-40.424199999999999
 20
44.235999999999997
 30
0.0
 10
-40.424199999999999
 20
44.235999999999997
 30
0.0
 10
-40.424199999999999
 20
45.6965
 30
0.0
 10
-40.424199999999999
 20
45.6965
 30
0.0
 10
-40.424199999999999
 20
45.6965
 30
0.0
 10
-40.424199999999999
 20
45.6965
 30
0.0
 10
-40.185699999999997
 20
45.6965
 30
0.0
 10
-40.185699999999997
 20
45.6965
 30
0.0
 10
-40.185699999999997
 20
45.6965
 30
0.0
 10
-40.185699999999997
 20
45.6965
 30
0.0
 10
-40.185699999999997
 20
44.5032
 30
0.0
 10
-40.185699999999997
 20
44.5032
 30
0.0
 10
-40.185699999999997
 20
44.5032
 30
0.0
 10
-40.185699999999997
 20
44.5032
 30
0.0
 10
-39.5672
 20
44.5032
 30
0.0
 10
-39.5672
 20
44.5032
 30
0.0
 10
-39.5672
 20
44.5032
 30
0.0
 10
-39.5672
 20
44.5032
 30
0.0
 10
-39.5672
 20
45.620800000000003
 30
0.0
 10
-39.5672
 20
45.620800000000003
 30
0.0
 10
-39.5672
 20
45.620800000000003
 30
0.0
 10
-39.5672
 20
45.620800000000003
 30
0.0
 10
-39.330199999999998
 20
45.620800000000003
 30
0.0
 10
-39.330199999999998
 20
45.620800000000003
 30
0.0
 10
-39.330199999999998
 20
45.620800000000003
 30
0.0
 10
-39.330199999999998
 20
45.620800000000003
 30
0.0
 10
-39.330199999999998
 20
44.5032
 30
0.0
 10
-39.330199999999998
 20
44.5032
 30
0.0
 10
-39.330199999999998
 20
44.5032
 30
0.0
 10
-39.330199999999998
 20
44.5032
 30
0.0
 10
-38.642499999999998
 20
44.5032
 30
0.0
 10
-38.642499999999998
 20
44.5032
 30
0.0
 10
-38.642499999999998
 20
44.5032
 30
0.0
 10
-38.642499999999998
 20
44.5032
 30
0.0
 10
-38.642499999999998
 20
45.743499999999997
 30
0.0
 10
-38.642499999999998
 20
45.743499999999997
 30
0.0
 10
-38.642499999999998
 20
45.743499999999997
 30
0.0
 10
-38.642499999999998
 20
45.743499999999997
 30
0.0
 10
-38.404000000000003
 20
45.743499999999997
 30
0.0
 10
-38.404000000000003
 20
45.743499999999997
 30
0.0
 10
-38.404000000000003
 20
45.743499999999997
 30
0.0
 10
-38.404000000000003
 20
45.743499999999997
 30
0.0
 10
-38.404000000000003
 20
44.235999999999997
 30
0.0
 10
-38.404000000000003
 20
44.235999999999997
 30
0.0
  0
SPLINE
  5
5D
100
AcDbEntity
  8
Layer 1
100
AcDbSpline
210
0.0
220
0.0
230
1.0
 70
     1
 71
     3
 72
    92
 73
    88
 74
     0
 42
0.0000000001
 43
0.0000000001
 40
0.0
 40
0.0
 40
0.0
 40
0.0
 40
0.0454545454545455
 40
0.0454545454545455
 40
0.0454545454545455
 40
0.0454545454545455
 40
0.0909090909090909
 40
0.0909090909090909
 40
0.0909090909090909
 40
0.0909090909090909
 40
0.1363636363636364
 40
0.1363636363636364
 40
0.1363636363636364
 40
0.1363636363636364
 40
0.1818181818181818
 40
0.1818181818181818
 40
0.1818181818181818
 40
0.1818181818181818
 40
0.2272727272727273
 40
0.2272727272727273
 40
0.2272727272727273
 40
0.2272727272727273
 40
0.2727272727272728
 40
0.2727272727272728
 40
0.2727272727272728
 40
0.2727272727272728
 40
0.3181818181818182
 40
0.3181818181818182
 40
0.3181818181818182
 40
0.3181818181818182
 40
0.3636363636363637
 40
0.3636363636363637
 40
0.3636363636363637
 40
0.3636363636363637
 40
0.4090909090909092
 40
0.4090909090909092
 40
0.4090909090909092
 40
0.4090909090909092
 40
0.4545454545454546
 40
0.4545454545454546
 40
0.4545454545454546
 40
0.4545454545454546
 40
0.5000000000000001
 40
0.5000000000000001
 40
0.5000000000000001
 40
0.5000000000000001
 40
0.5454545454545455
 40
0.5454545454545455
 40
0.5454545454545455
 40
0.5454545454545455
 40
0.5909090909090909
 40
0.5909090909090909
 40
0.5909090909090909
 40
0.5909090909090909
 40
0.6363636363636364
 40
0.6363636363636364
 40
0.6363636363636364
 40
0.6363636363636364
 40
0.6818181818181818
 40
0.6818181818181818
 40
0.6818181818181818
 40
0.6818181818181818
 40
0.7272727272727272
 40
0.7272727272727272
 40
0.7272727272727272
 40
0.7272727272727272
 40
0.7727272727272726
 40
0.7727272727272726
 40
0.7727272727272726
 40
0.7727272727272726
 40
0.818181818181818
 40
0.818181818181818
 40
0.818181818181818
 40
0.818181818181818
 40
0.8636363636363634
 40
0.8636363636363634
 40
0.8636363636363634
 40
0.8636363636363634
 40
0.9090909090909088
 40
0.9090909090909088
 40
0.9090909090909088
 40
0.9090909090909088
 40
0.9545454545454543
 40
0.9545454545454543
 40
0.9545454545454543
 40
0.9545454545454543
 40
1.0
 40
1.0
 40
1.0
 40
1.0
 10
-38.871099999999998
 20
46.049300000000002
 30
0.0
 10
-38.871099999999998
 20
46.049300000000002
 30
0.0
 10
-38.8932
 20
46.287799999999997
 30
0.0
 10
-38.8932
 20
46.287799999999997
 30
0.0
 10
-38.8932
 20
46.287799999999997
 30
0.0
 10
-38.781199999999998
 20
46.308
 30
0.0
 10
-38.6999
 20
46.346600000000002
 30
0.0
 10
-38.649099999999997
 20
46.403500000000001
 30
0.0
 10
-38.649099999999997
 20
46.403500000000001
 30
0.0
 10
-38.598700000000001
 20
46.4604
 30
0.0
 10
-38.573300000000003
 20
46.533299999999997
 30
0.0
 10
-38.573300000000003
 20
46.622700000000002
 30
0.0
 10
-38.573300000000003
 20
46.622700000000002
 30
0.0
 10
-38.573300000000003
 20
46.698900000000002
 30
0.0
 10
-38.590699999999998
 20
46.765599999999999
 30
0.0
 10
-38.625999999999998
 20
46.823
 30
0.0
 10
-38.625999999999998
 20
46.823
 30
0.0
 10
-38.660800000000002
 20
46.880400000000002
 30
0.0
 10
-38.7074
 20
46.927500000000002
 30
0.0
 10
-38.765700000000002
 20
46.964100000000002
 30
0.0
 10
-38.765700000000002
 20
46.964100000000002
 30
0.0
 10
-38.823999999999998
 20
47.001300000000001
 30
0.0
 10
-38.903100000000002
 20
47.0319
 30
0.0
 10
-39.001800000000003
 20
47.056800000000003
 30
0.0
 10
-39.001800000000003
 20
47.056800000000003
 30
0.0
 10
-39.101100000000002
 20
47.081299999999999
 30
0.0
 10
-39.202199999999998
 20
47.094000000000001
 30
0.0
 10
-39.305199999999999
 20
47.094000000000001
 30
0.0
 10
-39.305199999999999
 20
47.094000000000001
 30
0.0
 10
-39.316000000000003
 20
47.094000000000001
 30
0.0
 10
-39.332999999999998
 20
47.093499999999999
 30
0.0
 10
-39.354599999999998
 20
47.092599999999997
 30
0.0
 10
-39.354599999999998
 20
47.092599999999997
 30
0.0
 10
-39.2761
 20
47.042700000000004
 30
0.0
 10
-39.211599999999997
 20
46.975000000000001
 30
0.0
 10
-39.162700000000001
 20
46.889400000000002
 30
0.0
 10
-39.162700000000001
 20
46.889400000000002
 30
0.0
 10
-39.113300000000002
 20
46.8033
 30
0.0
 10
-39.088900000000002
 20
46.710099999999997
 30
0.0
 10
-39.088900000000002
 20
46.610399999999998
 30
0.0
 10
-39.088900000000002
 20
46.610399999999998
 30
0.0
 10
-39.088900000000002
 20
46.442999999999998
 30
0.0
 10
-39.149500000000003
 20
46.301400000000001
 30
0.0
 10
-39.270899999999997
 20
46.185699999999997
 30
0.0
 10
-39.270899999999997
 20
46.185699999999997
 30
0.0
 10
-39.392200000000003
 20
46.07
 30
0.0
 10
-39.551699999999997
 20
46.012099999999997
 30
0.0
 10
-39.7502
 20
46.012099999999997
 30
0.0
 10
-39.7502
 20
46.012099999999997
 30
0.0
 10
-39.955300000000001
 20
46.012099999999997
 30
0.0
 10
-40.119900000000001
 20
46.072299999999998
 30
0.0
 10
-40.244999999999997
 20
46.193199999999997
 30
0.0
 10
-40.244999999999997
 20
46.193199999999997
 30
0.0
 10
-40.370100000000001
 20
46.314100000000003
 30
0.0
 10
-40.432200000000002
 20
46.465600000000002
 30
0.0
 10
-40.432200000000002
 20
46.647599999999997
 30
0.0
 10
-40.432200000000002
 20
46.647599999999997
 30
0.0
 10
-40.432200000000002
 20
46.778799999999997
 30
0.0
 10
-40.396900000000002
 20
46.898800000000001
 30
0.0
 10
-40.3264
 20
47.007899999999999
 30
0.0
 10
-40.3264
 20
47.007899999999999
 30
0.0
 10
-40.255800000000001
 20
47.116500000000002
 30
0.0
 10
-40.154699999999998
 20
47.199300000000001
 30
0.0
 10
-40.023899999999998
 20
47.255800000000001
 30
0.0
 10
-40.023899999999998
 20
47.255800000000001
 30
0.0
 10
-39.8932
 20
47.312199999999997
 30
0.0
 10
-39.703600000000002
 20
47.340400000000002
 30
0.0
 10
-39.455300000000001
 20
47.340400000000002
 30
0.0
 10
-39.455300000000001
 20
47.340400000000002
 30
0.0
 10
-39.197499999999998
 20
47.340400000000002
 30
0.0
 10
-38.991999999999997
 20
47.3127
 30
0.0
 10
-38.8386
 20
47.256700000000002
 30
0.0
 10
-38.8386
 20
47.256700000000002
 30
0.0
 10
-38.685699999999997
 20
47.200299999999999
 30
0.0
 10
-38.569600000000001
 20
47.116999999999997
 30
0.0
 10
-38.489600000000003
 20
47.006500000000003
 30
0.0
 10
-38.489600000000003
 20
47.006500000000003
 30
0.0
 10
-38.409599999999998
 20
46.895499999999998
 30
0.0
 10
-38.369700000000002
 20
46.766100000000002
 30
0.0
 10
-38.369700000000002
 20
46.616999999999997
 30
0.0
 10
-38.369700000000002
 20
46.616999999999997
 30
0.0
 10
-38.369700000000002
 20
46.459000000000003
 30
0.0
 10
-38.413400000000003
 20
46.330100000000002
 30
0.0
 10
-38.501399999999997
 20
46.229900000000001
 30
0.0
 10
-38.501399999999997
 20
46.229900000000001
 30
0.0
 10
-38.588900000000002
 20
46.1297
 30
0.0
 10
-38.7121
 20
46.069499999999998
 30
0.0
 10
-38.871099999999998
 20
46.049300000000002
 30
0.0
  0
SPLINE
  5
5E
100
AcDbEntity
  8
Layer 1
100
AcDbSpline
210
0.0
220
0.0
230
1.0
 70
     1
 71
     3
 72
    36
 73
    32
 74
     0
 42
0.0000000001
 43
0.0000000001
 40
0.0
 40
0.0
 40
0.0
 40
0.0
 40
0.125
 40
0.125
 40
0.125
 40
0.125
 40
0.25
 40
0.25
 40
0.25
 40
0.25
 40
0.375
 40
0.375
 40
0.375
 40
0.375
 40
0.5
 40
0.5
 40
0.5
 40
0.5
 40
0.625
 40
0.625
 40
0.625
 40
0.625
 40
0.75
 40
0.75
 40
0.75
 40
0.75
 40
0.875
 40
0.875
 40
0.875
 40
0.875
 40
1.0
 40
1.0
 40
1.0
 40
1.0
 10
-39.762900000000002
 20
47.064799999999998
 30
0.0
 10
-39.904899999999998
 20
47.064799999999998
 30
0.0
 10
-40.018300000000004
 20
47.027200000000001
 30
0.0
 10
-40.101599999999998
 20
46.9514
 30
0.0
 10
-40.101599999999998
 20
46.9514
 30
0.0
 10
-40.185299999999998
 20
46.8752
 30
0.0
 10
-40.2271
 20
46.784500000000001
 30
0.0
 10
-40.2271
 20
46.677700000000002
 30
0.0
 10
-40.2271
 20
46.677700000000002
 30
0.0
 10
-40.2271
 20
46.567599999999999
 30
0.0
 10
-40.182000000000002
 20
46.471699999999998
 30
0.0
 10
-40.092100000000002
 20
46.389800000000001
 30
0.0
 10
-40.092100000000002
 20
46.389800000000001
 30
0.0
 10
-40.001800000000003
 20
46.308
 30
0.0
 10
-39.885199999999998
 20
46.267099999999999
 30
0.0
 10
-39.742199999999997
 20
46.267099999999999
 30
0.0
 10
-39.742199999999997
 20
46.267099999999999
 30
0.0
 10
-39.613300000000002
 20
46.267099999999999
 30
0.0
 10
-39.508899999999997
 20
46.306100000000001
 30
0.0
 10
-39.4285
 20
46.383699999999997
 30
0.0
 10
-39.4285
 20
46.383699999999997
 30
0.0
 10
-39.347999999999999
 20
46.461300000000001
 30
0.0
 10
-39.308
 20
46.556800000000003
 30
0.0
 10
-39.308
 20
46.6706
 30
0.0
 10
-39.308
 20
46.6706
 30
0.0
 10
-39.308
 20
46.785899999999998
 30
0.0
 10
-39.347999999999999
 20
46.879899999999999
 30
0.0
 10
-39.4285
 20
46.953800000000001
 30
0.0
 10
-39.4285
 20
46.953800000000001
 30
0.0
 10
-39.508899999999997
 20
47.028100000000002
 30
0.0
 10
-39.620399999999997
 20
47.064799999999998
 30
0.0
 10
-39.762900000000002
 20
47.064799999999998
 30
0.0
  0
SPLINE
  5
5F
100
AcDbEntity
  8
Layer 1
100
AcDbSpline
210
0.0
220
0.0
230
1.0
 70
     1
 71
     3
 72
    92
 73
    88
 74
     0
 42
0.0000000001
 43
0.0000000001
 40
0.0
 40
0.0
 40
0.0
 40
0.0
 40
0.0454545454545455
 40
0.0454545454545455
 40
0.0454545454545455
 40
0.0454545454545455
 40
0.0909090909090909
 40
0.0909090909090909
 40
0.0909090909090909
 40
0.0909090909090909
 40
0.1363636363636364
 40
0.1363636363636364
 40
0.1363636363636364
 40
0.1363636363636364
 40
0.1818181818181818
 40
0.1818181818181818
 40
0.1818181818181818
 40
0.1818181818181818
 40
0.2272727272727273
 40
0.2272727272727273
 40
0.2272727272727273
 40
0.2272727272727273
 40
0.2727272727272728
 40
0.2727272727272728
 40
0.2727272727272728
 40
0.2727272727272728
 40
0.3181818181818182
 40
0.3181818181818182
 40
0.3181818181818182
 40
0.3181818181818182
 40
0.3636363636363637
 40
0.3636363636363637
 40
0.3636363636363637
 40
0.3636363636363637
 40
0.4090909090909092
 40
0.4090909090909092
 40
0.4090909090909092
 40
0.4090909090909092
 40
0.4545454545454546
 40
0.4545454545454546
 40
0.4545454545454546
 40
0.4545454545454546
 40
0.5000000000000001
 40
0.5000000000000001
 40
0.5000000000000001
 40
0.5000000000000001
 40
0.5454545454545455
 40
0.5454545454545455
 40
0.5454545454545455
 40
0.5454545454545455
 40
0.5909090909090909
 40
0.5909090909090909
 40
0.5909090909090909
 40
0.5909090909090909
 40
0.6363636363636364
 40
0.6363636363636364
 40
0.6363636363636364
 40
0.6363636363636364
 40
0.6818181818181818
 40
0.6818181818181818
 40
0.6818181818181818
 40
0.6818181818181818
 40
0.7272727272727272
 40
0.7272727272727272
 40
0.7272727272727272
 40
0.7272727272727272
 40
0.7727272727272726
 40
0.7727272727272726
 40
0.7727272727272726
 40
0.7727272727272726
 40
0.818181818181818
 40
0.818181818181818
 40
0.818181818181818
 40
0.818181818181818
 40
0.8636363636363634
 40
0.8636363636363634
 40
0.8636363636363634
 40
0.8636363636363634
 40
0.9090909090909088
 40
0.9090909090909088
 40
0.9090909090909088
 40
0.9090909090909088
 40
0.9545454545454543
 40
0.9545454545454543
 40
0.9545454545454543
 40
0.9545454545454543
 40
1.0
 40
1.0
 40
1.0
 40
1.0
 10
-38.871099999999998
 20
47.618899999999996
 30
0.0
 10
-38.871099999999998
 20
47.618899999999996
 30
0.0
 10
-38.8932
 20
47.857399999999998
 30
0.0
 10
-38.8932
 20
47.857399999999998
 30
0.0
 10
-38.8932
 20
47.857399999999998
 30
0.0
 10
-38.781199999999998
 20
47.877600000000001
 30
0.0
 10
-38.6999
 20
47.916200000000003
 30
0.0
 10
-38.649099999999997
 20
47.973100000000002
 30
0.0
 10
-38.649099999999997
 20
47.973100000000002
 30
0.0
 10
-38.598700000000001
 20
48.030000000000001
 30
0.0
 10
-38.573300000000003
 20
48.102899999999998
 30
0.0
 10
-38.573300000000003
 20
48.192300000000003
 30
0.0
 10
-38.573300000000003
 20
48.192300000000003
 30
0.0
 10
-38.573300000000003
 20
48.268500000000003
 30
0.0
 10
-38.590699999999998
 20
48.3352
 30
0.0
 10
-38.625999999999998
 20
48.392600000000002
 30
0.0
 10
-38.625999999999998
 20
48.392600000000002
 30
0.0
 10
-38.660800000000002
 20
48.450000000000003
 30
0.0
 10
-38.7074
 20
48.497100000000003
 30
0.0
 10
-38.765700000000002
 20
48.533700000000003
 30
0.0
 10
-38.765700000000002
 20
48.533700000000003
 30
0.0
 10
-38.823999999999998
 20
48.570900000000002
 30
0.0
 10
-38.903100000000002
 20
48.601500000000001
 30
0.0
 10
-39.001800000000003
 20
48.626399999999997
 30
0.0
 10
-39.001800000000003
 20
48.626399999999997
 30
0.0
 10
-39.101100000000002
 20
48.6509
 30
0.0
 10
-39.202199999999998
 20
48.663600000000002
 30
0.0
 10
-39.305199999999999
 20
48.663600000000002
 30
0.0
 10
-39.305199999999999
 20
48.663600000000002
 30
0.0
 10
-39.316000000000003
 20
48.663600000000002
 30
0.0
 10
-39.332999999999998
 20
48.6631
 30
0.0
 10
-39.354599999999998
 20
48.662199999999999
 30
0.0
 10
-39.354599999999998
 20
48.662199999999999
 30
0.0
 10
-39.2761
 20
48.612299999999998
 30
0.0
 10
-39.211599999999997
 20
48.544600000000003
 30
0.0
 10
-39.162700000000001
 20
48.459000000000003
 30
0.0
 10
-39.162700000000001
 20
48.459000000000003
 30
0.0
 10
-39.113300000000002
 20
48.372900000000001
 30
0.0
 10
-39.088900000000002
 20
48.279699999999998
 30
0.0
 10
-39.088900000000002
 20
48.18
 30
0.0
 10
-39.088900000000002
 20
48.18
 30
0.0
 10
-39.088900000000002
 20
48.012599999999999
 30
0.0
 10
-39.149500000000003
 20
47.871000000000002
 30
0.0
 10
-39.270899999999997
 20
47.755299999999998
 30
0.0
 10
-39.270899999999997
 20
47.755299999999998
 30
0.0
 10
-39.392200000000003
 20
47.639600000000002
 30
0.0
 10
-39.551699999999997
 20
47.581699999999998
 30
0.0
 10
-39.7502
 20
47.581699999999998
 30
0.0
 10
-39.7502
 20
47.581699999999998
 30
0.0
 10
-39.955300000000001
 20
47.581699999999998
 30
0.0
 10
-40.119900000000001
 20
47.6419
 30
0.0
 10
-40.244999999999997
 20
47.762799999999999
 30
0.0
 10
-40.244999999999997
 20
47.762799999999999
 30
0.0
 10
-40.370100000000001
 20
47.883699999999997
 30
0.0
 10
-40.432200000000002
 20
48.035200000000003
 30
0.0
 10
-40.432200000000002
 20
48.217199999999998
 30
0.0
 10
-40.432200000000002
 20
48.217199999999998
 30
0.0
 10
-40.432200000000002
 20
48.348399999999998
 30
0.0
 10
-40.396900000000002
 20
48.468400000000003
 30
0.0
 10
-40.3264
 20
48.577500000000001
 30
0.0
 10
-40.3264
 20
48.577500000000001
 30
0.0
 10
-40.255800000000001
 20
48.686100000000003
 30
0.0
 10
-40.154699999999998
 20
48.768900000000002
 30
0.0
 10
-40.023899999999998
 20
48.825400000000002
 30
0.0
 10
-40.023899999999998
 20
48.825400000000002
 30
0.0
 10
-39.8932
 20
48.881799999999998
 30
0.0
 10
-39.703600000000002
 20
48.909999999999997
 30
0.0
 10
-39.455300000000001
 20
48.909999999999997
 30
0.0
 10
-39.455300000000001
 20
48.909999999999997
 30
0.0
 10
-39.197499999999998
 20
48.909999999999997
 30
0.0
 10
-38.991999999999997
 20
48.882300000000001
 30
0.0
 10
-38.8386
 20
48.826300000000003
 30
0.0
 10
-38.8386
 20
48.826300000000003
 30
0.0
 10
-38.685699999999997
 20
48.7699
 30
0.0
 10
-38.569600000000001
 20
48.686599999999999
 30
0.0
 10
-38.489600000000003
 20
48.576099999999997
 30
0.0
 10
-38.489600000000003
 20
48.576099999999997
 30
0.0
 10
-38.409599999999998
 20
48.4651
 30
0.0
 10
-38.369700000000002
 20
48.335700000000003
 30
0.0
 10
-38.369700000000002
 20
48.186599999999999
 30
0.0
 10
-38.369700000000002
 20
48.186599999999999
 30
0.0
 10
-38.369700000000002
 20
48.028599999999997
 30
0.0
 10
-38.413400000000003
 20
47.899700000000003
 30
0.0
 10
-38.501399999999997
 20
47.799500000000002
 30
0.0
 10
-38.501399999999997
 20
47.799500000000002
 30
0.0
 10
-38.588900000000002
 20
47.699300000000001
 30
0.0
 10
-38.7121
 20
47.639099999999999
 30
0.0
 10
-38.871099999999998
 20
47.618899999999996
 30
0.0
  0
SPLINE
  5
60
100
AcDbEntity
  8
Layer 1
100
AcDbSpline
210
0.0
220
0.0
230
1.0
 70
     1
 71
     3
 72
    36
 73
    32
 74
     0
 42
0.0000000001
 43
0.0000000001
 40
0.0
 40
0.0
 40
0.0
 40
0.0
 40
0.125
 40
0.125
 40
0.125
 40
0.125
 40
0.25
 40
0.25
 40
0.25
 40
0.25
 40
0.375
 40
0.375
 40
0.375
 40
0.375
 40
0.5
 40
0.5
 40
0.5
 40
0.5
 40
0.625
 40
0.625
 40
0.625
 40
0.625
 40
0.75
 40
0.75
 40
0.75
 40
0.75
 40
0.875
 40
0.875
 40
0.875
 40
0.875
 40
1.0
 40
1.0
 40
1.0
 40
1.0
 10
-39.762900000000002
 20
48.634399999999999
 30
0.0
 10
-39.904899999999998
 20
48.634399999999999
 30
0.0
 10
-40.018300000000004
 20
48.596800000000002
 30
0.0
 10
-40.101599999999998
 20
48.521000000000001
 30
0.0
 10
-40.101599999999998
 20
48.521000000000001
 30
0.0
 10
-40.185299999999998
 20
48.444800000000001
 30
0.0
 10
-40.2271
 20
48.354100000000003
 30
0.0
 10
-40.2271
 20
48.247300000000003
 30
0.0
 10
-40.2271
 20
48.247300000000003
 30
0.0
 10
-40.2271
 20
48.1372
 30
0.0
 10
-40.182000000000002
 20
48.0413
 30
0.0
 10
-40.092100000000002
 20
47.959400000000002
 30
0.0
 10
-40.092100000000002
 20
47.959400000000002
 30
0.0
 10
-40.001800000000003
 20
47.877600000000001
 30
0.0
 10
-39.885199999999998
 20
47.8367
 30
0.0
 10
-39.742199999999997
 20
47.8367
 30
0.0
 10
-39.742199999999997
 20
47.8367
 30
0.0
 10
-39.613300000000002
 20
47.8367
 30
0.0
 10
-39.508899999999997
 20
47.875700000000002
 30
0.0
 10
-39.4285
 20
47.953299999999999
 30
0.0
 10
-39.4285
 20
47.953299999999999
 30
0.0
 10
-39.347999999999999
 20
48.030900000000003
 30
0.0
 10
-39.308
 20
48.126399999999997
 30
0.0
 10
-39.308
 20
48.240200000000002
 30
0.0
 10
-39.308
 20
48.240200000000002
 30
0.0
 10
-39.308
 20
48.355499999999999
 30
0.0
 10
-39.347999999999999
 20
48.4495
 30
0.0
 10
-39.4285
 20
48.523400000000002
 30
0.0
 10
-39.4285
 20
48.523400000000002
 30
0.0
 10
-39.508899999999997
 20
48.597700000000003
 30
0.0
 10
-39.620399999999997
 20
48.634399999999999
 30
0.0
 10
-39.762900000000002
 20
48.634399999999999
 30
0.0
  0
SPLINE
  5
61
100
AcDbEntity
  8
Layer 1
100
AcDbSpline
210
0.0
220
0.0
230
1.0
 70
     1
 71
     3
 72
    92
 73
    88
 74
     0
 42
0.0000000001
 43
0.0000000001
 40
0.0
 40
0.0
 40
0.0
 40
0.0
 40
0.0454545454545455
 40
0.0454545454545455
 40
0.0454545454545455
 40
0.0454545454545455
 40
0.0909090909090909
 40
0.0909090909090909
 40
0.0909090909090909
 40
0.0909090909090909
 40
0.1363636363636364
 40
0.1363636363636364
 40
0.1363636363636364
 40
0.1363636363636364
 40
0.1818181818181818
 40
0.1818181818181818
 40
0.1818181818181818
 40
0.1818181818181818
 40
0.2272727272727273
 40
0.2272727272727273
 40
0.2272727272727273
 40
0.2272727272727273
 40
0.2727272727272728
 40
0.2727272727272728
 40
0.2727272727272728
 40
0.2727272727272728
 40
0.3181818181818182
 40
0.3181818181818182
 40
0.3181818181818182
 40
0.3181818181818182
 40
0.3636363636363637
 40
0.3636363636363637
 40
0.3636363636363637
 40
0.3636363636363637
 40
0.4090909090909092
 40
0.4090909090909092
 40
0.4090909090909092
 40
0.4090909090909092
 40
0.4545454545454546
 40
0.4545454545454546
 40
0.4545454545454546
 40
0.4545454545454546
 40
0.5000000000000001
 40
0.5000000000000001
 40
0.5000000000000001
 40
0.5000000000000001
 40
0.5454545454545455
 40
0.5454545454545455
 40
0.5454545454545455
 40
0.5454545454545455
 40
0.5909090909090909
 40
0.5909090909090909
 40
0.5909090909090909
 40
0.5909090909090909
 40
0.6363636363636364
 40
0.6363636363636364
 40
0.6363636363636364
 40
0.6363636363636364
 40
0.6818181818181818
 40
0.6818181818181818
 40
0.6818181818181818
 40
0.6818181818181818
 40
0.7272727272727272
 40
0.7272727272727272
 40
0.7272727272727272
 40
0.7272727272727272
 40
0.7727272727272726
 40
0.7727272727272726
 40
0.7727272727272726
 40
0.7727272727272726
 40
0.818181818181818
 40
0.818181818181818
 40
0.818181818181818
 40
0.818181818181818
 40
0.8636363636363634
 40
0.8636363636363634
 40
0.8636363636363634
 40
0.8636363636363634
 40
0.9090909090909088
 40
0.9090909090909088
 40
0.9090909090909088
 40
0.9090909090909088
 40
0.9545454545454543
 40
0.9545454545454543
 40
0.9545454545454543
 40
0.9545454545454543
 40
1.0
 40
1.0
 40
1.0
 40
1.0
 10
-54.1858
 20
41.055
 30
0.0
 10
-54.1858
 20
41.055
 30
0.0
 10
-53.953499999999998
 20
41.108699999999999
 30
0.0
 10
-53.953499999999998
 20
41.108699999999999
 30
0.0
 10
-53.953499999999998
 20
41.108699999999999
 30
0.0
 10
-53.953499999999998
 20
41.108699999999999
 30
0.0
 10
-53.651800000000001
 20
39.808100000000003
 30
0.0
 10
-53.651800000000001
 20
39.808100000000003
 30
0.0
 10
-53.651800000000001
 20
39.808100000000003
 30
0.0
 10
-53.709699999999998
 20
39.792499999999997
 30
0.0
 10
-53.767699999999998
 20
39.789200000000001
 30
0.0
 10
-53.8264
 20
39.797199999999997
 30
0.0
 10
-53.8264
 20
39.797199999999997
 30
0.0
 10
-53.922699999999999
 20
39.809699999999999
 30
0.0
 10
-54.022100000000002
 20
39.842500000000001
 30
0.0
 10
-54.1248
 20
39.895499999999998
 30
0.0
 10
-54.1248
 20
39.895499999999998
 30
0.0
 10
-54.227800000000002
 20
39.948500000000003
 30
0.0
 10
-54.351300000000002
 20
40.030900000000003
 30
0.0
 10
-54.496299999999998
 20
40.142499999999998
 30
0.0
 10
-54.496299999999998
 20
40.142499999999998
 30
0.0
 10
-54.721200000000003
 20
40.315899999999999
 30
0.0
 10
-54.893500000000003
 20
40.4283
 30
0.0
 10
-55.013399999999997
 20
40.479599999999998
 30
0.0
 10
-55.013399999999997
 20
40.479599999999998
 30
0.0
 10
-55.133499999999998
 20
40.530799999999999
 30
0.0
 10
-55.239199999999997
 20
40.546300000000002
 30
0.0
 10
-55.330199999999998
 20
40.524900000000002
 30
0.0
 10
-55.330199999999998
 20
40.524900000000002
 30
0.0
 10
-55.426299999999998
 20
40.502600000000001
 30
0.0
 10
-55.499099999999999
 20
40.450000000000003
 30
0.0
 10
-55.5486
 20
40.366100000000003
 30
0.0
 10
-55.5486
 20
40.366100000000003
 30
0.0
 10
-55.598700000000001
 20
40.282400000000003
 30
0.0
 10
-55.610799999999998
 20
40.185600000000001
 30
0.0
 10
-55.585299999999997
 20
40.075299999999999
 30
0.0
 10
-55.585299999999997
 20
40.075299999999999
 30
0.0
 10
-55.558500000000002
 20
39.9589
 30
0.0
 10
-55.501800000000003
 20
39.874200000000002
 30
0.0
 10
-55.4161
 20
39.820399999999999
 30
0.0
 10
-55.4161
 20
39.820399999999999
 30
0.0
 10
-55.329999999999998
 20
39.766599999999997
 30
0.0
 10
-55.225200000000001
 20
39.753999999999998
 30
0.0
 10
-55.101199999999999
 20
39.781700000000001
 30
0.0
 10
-55.101199999999999
 20
39.781700000000001
 30
0.0
 10
-55.101199999999999
 20
39.781700000000001
 30
0.0
 10
-55.069400000000002
 20
39.527500000000003
 30
0.0
 10
-55.069400000000002
 20
39.527500000000003
 30
0.0
 10
-55.069400000000002
 20
39.527500000000003
 30
0.0
 10
-55.258699999999997
 20
39.501199999999997
 30
0.0
 10
-55.4146
 20
39.532600000000002
 30
0.0
 10
-55.537599999999998
 20
39.621000000000002
 30
0.0
 10
-55.537599999999998
 20
39.621000000000002
 30
0.0
 10
-55.660200000000003
 20
39.709400000000002
 30
0.0
 10
-55.743200000000002
 20
39.847499999999997
 30
0.0
 10
-55.786499999999997
 20
40.034599999999998
 30
0.0
 10
-55.786499999999997
 20
40.034599999999998
 30
0.0
 10
-55.8307
 20
40.223100000000002
 30
0.0
 10
-55.813000000000002
 20
40.384700000000002
 30
0.0
 10
-55.733699999999999
 20
40.519100000000002
 30
0.0
 10
-55.733699999999999
 20
40.519100000000002
 30
0.0
 10
-55.654200000000003
 20
40.653399999999998
 30
0.0
 10
-55.537300000000002
 20
40.738700000000001
 30
0.0
 10
-55.3827
 20
40.7746
 30
0.0
 10
-55.3827
 20
40.7746
 30
0.0
 10
-55.303600000000003
 20
40.792700000000004
 30
0.0
 10
-55.2226
 20
40.794499999999999
 30
0.0
 10
-55.139099999999999
 20
40.780200000000001
 30
0.0
 10
-55.139099999999999
 20
40.780200000000001
 30
0.0
 10
-55.055500000000002
 20
40.7654
 30
0.0
 10
-54.963099999999997
 20
40.730400000000003
 30
0.0
 10
-54.861400000000003
 20
40.6755
 30
0.0
 10
-54.861400000000003
 20
40.6755
 30
0.0
 10
-54.760199999999998
 20
40.620199999999997
 30
0.0
 10
-54.616100000000003
 20
40.522599999999997
 30
0.0
 10
-54.429099999999998
 20
40.383299999999998
 30
0.0
 10
-54.429099999999998
 20
40.383299999999998
 30
0.0
 10
-54.273800000000001
 20
40.266399999999997
 30
0.0
 10
-54.169499999999999
 20
40.192700000000002
 30
0.0
 10
-54.116500000000002
 20
40.161200000000001
 30
0.0
 10
-54.116500000000002
 20
40.161200000000001
 30
0.0
 10
-54.063699999999997
 20
40.130099999999999
 30
0.0
 10
-54.012099999999997
 20
40.106299999999997
 30
0.0
 10
-53.9619
 20
40.089500000000001
 30
0.0
 10
-53.9619
 20
40.089500000000001
 30
0.0
 10
-53.9619
 20
40.089500000000001
 30
0.0
 10
-54.1858
 20
41.055
 30
0.0
 10
-54.1858
 20
41.055
 30
0.0
  0
SPLINE
  5
62
100
AcDbEntity
  8
Layer 1
100
AcDbSpline
210
0.0
220
0.0
230
1.0
 70
     1
 71
     3
 72
    52
 73
    48
 74
     0
 42
0.0000000001
 43
0.0000000001
 40
0.0
 40
0.0
 40
0.0
 40
0.0
 40
0.0833333333333333
 40
0.0833333333333333
 40
0.0833333333333333
 40
0.0833333333333333
 40
0.1666666666666667
 40
0.1666666666666667
 40
0.1666666666666667
 40
0.1666666666666667
 40
0.25
 40
0.25
 40
0.25
 40
0.25
 40
0.3333333333333333
 40
0.3333333333333333
 40
0.3333333333333333
 40
0.3333333333333333
 40
0.4166666666666666
 40
0.4166666666666666
 40
0.4166666666666666
 40
0.4166666666666666
 40
0.4999999999999999
 40
0.4999999999999999
 40
0.4999999999999999
 40
0.4999999999999999
 40
0.5833333333333333
 40
0.5833333333333333
 40
0.5833333333333333
 40
0.5833333333333333
 40
0.6666666666666666
 40
0.6666666666666666
 40
0.6666666666666666
 40
0.6666666666666666
 40
0.75
 40
0.75
 40
0.75
 40
0.75
 40
0.8333333333333334
 40
0.8333333333333334
 40
0.8333333333333334
 40
0.8333333333333334
 40
0.9166666666666667
 40
0.9166666666666667
 40
0.9166666666666667
 40
0.9166666666666667
 40
1.0
 40
1.0
 40
1.0
 40
1.0
 10
-54.051000000000002
 20
41.467799999999997
 30
0.0
 10
-54.051000000000002
 20
41.467799999999997
 30
0.0
 10
-56.018799999999999
 20
41.011800000000001
 30
0.0
 10
-56.018799999999999
 20
41.011800000000001
 30
0.0
 10
-56.018799999999999
 20
41.011800000000001
 30
0.0
 10
-56.018799999999999
 20
41.011800000000001
 30
0.0
 10
-56.348799999999997
 20
42.4345
 30
0.0
 10
-56.348799999999997
 20
42.4345
 30
0.0
 10
-56.348799999999997
 20
42.4345
 30
0.0
 10
-56.348799999999997
 20
42.4345
 30
0.0
 10
-56.116399999999999
 20
42.488700000000001
 30
0.0
 10
-56.116399999999999
 20
42.488700000000001
 30
0.0
 10
-56.116399999999999
 20
42.488700000000001
 30
0.0
 10
-56.116399999999999
 20
42.488700000000001
 30
0.0
 10
-55.847099999999998
 20
41.326099999999997
 30
0.0
 10
-55.847099999999998
 20
41.326099999999997
 30
0.0
 10
-55.847099999999998
 20
41.326099999999997
 30
0.0
 10
-55.847099999999998
 20
41.326099999999997
 30
0.0
 10
-55.244399999999999
 20
41.465899999999998
 30
0.0
 10
-55.244399999999999
 20
41.465899999999998
 30
0.0
 10
-55.244399999999999
 20
41.465899999999998
 30
0.0
 10
-55.244399999999999
 20
41.465899999999998
 30
0.0
 10
-55.496499999999997
 20
42.554400000000001
 30
0.0
 10
-55.496499999999997
 20
42.554400000000001
 30
0.0
 10
-55.496499999999997
 20
42.554400000000001
 30
0.0
 10
-55.496499999999997
 20
42.554400000000001
 30
0.0
 10
-55.265500000000003
 20
42.6081
 30
0.0
 10
-55.265500000000003
 20
42.6081
 30
0.0
 10
-55.265500000000003
 20
42.6081
 30
0.0
 10
-55.265500000000003
 20
42.6081
 30
0.0
 10
-55.013399999999997
 20
41.519599999999997
 30
0.0
 10
-55.013399999999997
 20
41.519599999999997
 30
0.0
 10
-55.013399999999997
 20
41.519599999999997
 30
0.0
 10
-55.013399999999997
 20
41.519599999999997
 30
0.0
 10
-54.343299999999999
 20
41.674700000000001
 30
0.0
 10
-54.343299999999999
 20
41.674700000000001
 30
0.0
 10
-54.343299999999999
 20
41.674700000000001
 30
0.0
 10
-54.343299999999999
 20
41.674700000000001
 30
0.0
 10
-54.623699999999999
 20
42.883000000000003
 30
0.0
 10
-54.623699999999999
 20
42.883000000000003
 30
0.0
 10
-54.623699999999999
 20
42.883000000000003
 30
0.0
 10
-54.623699999999999
 20
42.883000000000003
 30
0.0
 10
-54.391399999999997
 20
42.936599999999999
 30
0.0
 10
-54.391399999999997
 20
42.936599999999999
 30
0.0
 10
-54.391399999999997
 20
42.936599999999999
 30
0.0
 10
-54.391399999999997
 20
42.936599999999999
 30
0.0
 10
-54.051000000000002
 20
41.467799999999997
 30
0.0
 10
-54.051000000000002
 20
41.467799999999997
 30
0.0
  0
SPLINE
  5
63
100
AcDbEntity
  8
Layer 1
100
AcDbSpline
210
0.0
220
0.0
230
1.0
 70
     1
 71
     3
 72
    92
 73
    88
 74
     0
 42
0.0000000001
 43
0.0000000001
 40
0.0
 40
0.0
 40
0.0
 40
0.0
 40
0.0454545454545455
 40
0.0454545454545455
 40
0.0454545454545455
 40
0.0454545454545455
 40
0.0909090909090909
 40
0.0909090909090909
 40
0.0909090909090909
 40
0.0909090909090909
 40
0.1363636363636364
 40
0.1363636363636364
 40
0.1363636363636364
 40
0.1363636363636364
 40
0.1818181818181818
 40
0.1818181818181818
 40
0.1818181818181818
 40
0.1818181818181818
 40
0.2272727272727273
 40
0.2272727272727273
 40
0.2272727272727273
 40
0.2272727272727273
 40
0.2727272727272728
 40
0.2727272727272728
 40
0.2727272727272728
 40
0.2727272727272728
 40
0.3181818181818182
 40
0.3181818181818182
 40
0.3181818181818182
 40
0.3181818181818182
 40
0.3636363636363637
 40
0.3636363636363637
 40
0.3636363636363637
 40
0.3636363636363637
 40
0.4090909090909092
 40
0.4090909090909092
 40
0.4090909090909092
 40
0.4090909090909092
 40
0.4545454545454546
 40
0.4545454545454546
 40
0.4545454545454546
 40
0.4545454545454546
 40
0.5000000000000001
 40
0.5000000000000001
 40
0.5000000000000001
 40
0.5000000000000001
 40
0.5454545454545455
 40
0.5454545454545455
 40
0.5454545454545455
 40
0.5454545454545455
 40
0.5909090909090909
 40
0.5909090909090909
 40
0.5909090909090909
 40
0.5909090909090909
 40
0.6363636363636364
 40
0.6363636363636364
 40
0.6363636363636364
 40
0.6363636363636364
 40
0.6818181818181818
 40
0.6818181818181818
 40
0.6818181818181818
 40
0.6818181818181818
 40
0.7272727272727272
 40
0.7272727272727272
 40
0.7272727272727272
 40
0.7272727272727272
 40
0.7727272727272726
 40
0.7727272727272726
 40
0.7727272727272726
 40
0.7727272727272726
 40
0.818181818181818
 40
0.818181818181818
 40
0.818181818181818
 40
0.818181818181818
 40
0.8636363636363634
 40
0.8636363636363634
 40
0.8636363636363634
 40
0.8636363636363634
 40
0.9090909090909088
 40
0.9090909090909088
 40
0.9090909090909088
 40
0.9090909090909088
 40
0.9545454545454543
 40
0.9545454545454543
 40
0.9545454545454543
 40
0.9545454545454543
 40
1.0
 40
1.0
 40
1.0
 40
1.0
 10
-54.931399999999996
 20
43.125300000000003
 30
0.0
 10
-54.931399999999996
 20
43.125300000000003
 30
0.0
 10
-55.006799999999998
 20
43.352600000000002
 30
0.0
 10
-55.006799999999998
 20
43.352600000000002
 30
0.0
 10
-55.006799999999998
 20
43.352600000000002
 30
0.0
 10
-54.9024
 20
43.397399999999998
 30
0.0
 10
-54.831899999999997
 20
43.453800000000001
 30
0.0
 10
-54.795200000000001
 20
43.520299999999999
 30
0.0
 10
-54.795200000000001
 20
43.520299999999999
 30
0.0
 10
-54.758899999999997
 20
43.587299999999999
 30
0.0
 10
-54.750799999999998
 20
43.664400000000001
 30
0.0
 10
-54.770800000000001
 20
43.751100000000001
 30
0.0
 10
-54.770800000000001
 20
43.751100000000001
 30
0.0
 10
-54.7881
 20
43.825499999999998
 30
0.0
 10
-54.820500000000003
 20
43.886499999999998
 30
0.0
 10
-54.867199999999997
 20
43.9343
 30
0.0
 10
-54.867199999999997
 20
43.9343
 30
0.0
 10
-54.914299999999997
 20
43.982700000000001
 30
0.0
 10
-54.970500000000001
 20
44.017899999999997
 30
0.0
 10
-55.035299999999999
 20
44.040599999999998
 30
0.0
 10
-55.035299999999999
 20
44.040599999999998
 30
0.0
 10
-55.100499999999997
 20
44.063099999999999
 30
0.0
 10
-55.183999999999997
 20
44.075600000000001
 30
0.0
 10
-55.2866
 20
44.077300000000001
 30
0.0
 10
-55.2866
 20
44.077300000000001
 30
0.0
 10
-55.388599999999997
 20
44.079000000000001
 30
0.0
 10
-55.489899999999999
 20
44.068100000000001
 30
0.0
 10
-55.590200000000003
 20
44.044800000000002
 30
0.0
 10
-55.590200000000003
 20
44.044800000000002
 30
0.0
 10
-55.601100000000002
 20
44.0426
 30
0.0
 10
-55.617100000000001
 20
44.0381
 30
0.0
 10
-55.638300000000001
 20
44.032499999999999
 30
0.0
 10
-55.638300000000001
 20
44.032499999999999
 30
0.0
 10
-55.5501
 20
44.0017
 30
0.0
 10
-55.4724
 20
43.950299999999999
 30
0.0
 10
-55.405200000000001
 20
43.877800000000001
 30
0.0
 10
-55.405200000000001
 20
43.877800000000001
 30
0.0
 10
-55.337699999999998
 20
43.805399999999999
 30
0.0
 10
-55.292700000000004
 20
43.720300000000002
 30
0.0
 10
-55.270400000000002
 20
43.622799999999998
 30
0.0
 10
-55.270400000000002
 20
43.622799999999998
 30
0.0
 10
-55.232700000000001
 20
43.459699999999998
 30
0.0
 10
-55.259599999999999
 20
43.308
 30
0.0
 10
-55.351500000000001
 20
43.168100000000003
 30
0.0
 10
-55.351500000000001
 20
43.168100000000003
 30
0.0
 10
-55.443399999999997
 20
43.027700000000003
 30
0.0
 10
-55.586199999999998
 20
42.935200000000002
 30
0.0
 10
-55.779400000000003
 20
42.890700000000002
 30
0.0
 10
-55.779400000000003
 20
42.890700000000002
 30
0.0
 10
-55.979199999999999
 20
42.844299999999997
 30
0.0
 10
-56.153500000000001
 20
42.8658
 30
0.0
 10
-56.302500000000002
 20
42.955399999999997
 30
0.0
 10
-56.302500000000002
 20
42.955399999999997
 30
0.0
 10
-56.451300000000003
 20
43.045000000000002
 30
0.0
 10
-56.546199999999999
 20
43.178400000000003
 30
0.0
 10
-56.587699999999998
 20
43.355499999999999
 30
0.0
 10
-56.587699999999998
 20
43.355499999999999
 30
0.0
 10
-56.617199999999997
 20
43.483199999999997
 30
0.0
 10
-56.609699999999997
 20
43.6083
 30
0.0
 10
-56.5655
 20
43.7303
 30
0.0
 10
-56.5655
 20
43.7303
 30
0.0
 10
-56.5212
 20
43.852200000000003
 30
0.0
 10
-56.441800000000001
 20
43.955599999999997
 30
0.0
 10
-56.326900000000002
 20
44.040300000000002
 30
0.0
 10
-56.326900000000002
 20
44.040300000000002
 30
0.0
 10
-56.2119
 20
44.125
 30
0.0
 10
-56.034100000000002
 20
44.195099999999996
 30
0.0
 10
-55.792299999999997
 20
44.250999999999998
 30
0.0
 10
-55.792299999999997
 20
44.250999999999998
 30
0.0
 10
-55.540599999999998
 20
44.309800000000003
 30
0.0
 10
-55.334000000000003
 20
44.328899999999997
 30
0.0
 10
-55.1723
 20
44.308799999999998
 30
0.0
 10
-55.1723
 20
44.308799999999998
 30
0.0
 10
-55.0107
 20
44.288699999999999
 30
0.0
 10
-54.878500000000003
 20
44.233600000000003
 30
0.0
 10
-54.775700000000001
 20
44.143900000000002
 30
0.0
 10
-54.775700000000001
 20
44.143900000000002
 30
0.0
 10
-54.673000000000002
 20
44.054099999999998
 30
0.0
 10
-54.604700000000001
 20
43.936500000000002
 30
0.0
 10
-54.571100000000001
 20
43.791800000000002
 30
0.0
 10
-54.571100000000001
 20
43.791800000000002
 30
0.0
 10
-54.535600000000002
 20
43.637700000000002
 30
0.0
 10
-54.5488
 20
43.502400000000002
 30
0.0
 10
-54.611800000000002
 20
43.384799999999998
 30
0.0
 10
-54.611800000000002
 20
43.384799999999998
 30
0.0
 10
-54.674799999999998
 20
43.267200000000003
 30
0.0
 10
-54.781399999999998
 20
43.180999999999997
 30
0.0
 10
-54.931399999999996
 20
43.125300000000003
 30
0.0
  0
SPLINE
  5
64
100
AcDbEntity
  8
Layer 1
100
AcDbSpline
210
0.0
220
0.0
230
1.0
 70
     1
 71
     3
 72
    36
 73
    32
 74
     0
 42
0.0000000001
 43
0.0000000001
 40
0.0
 40
0.0
 40
0.0
 40
0.0
 40
0.125
 40
0.125
 40
0.125
 40
0.125
 40
0.25
 40
0.25
 40
0.25
 40
0.25
 40
0.375
 40
0.375
 40
0.375
 40
0.375
 40
0.5
 40
0.5
 40
0.5
 40
0.5
 40
0.625
 40
0.625
 40
0.625
 40
0.625
 40
0.75
 40
0.75
 40
0.75
 40
0.75
 40
0.875
 40
0.875
 40
0.875
 40
0.875
 40
1.0
 40
1.0
 40
1.0
 40
1.0
 10
-56.029200000000003
 20
43.9133
 30
0.0
 10
-56.168199999999999
 20
43.881
 30
0.0
 10
-56.2699
 20
43.818800000000003
 30
0.0
 10
-56.334099999999999
 20
43.726199999999999
 30
0.0
 10
-56.334099999999999
 20
43.726199999999999
 30
0.0
 10
-56.398200000000003
 20
43.633499999999998
 30
0.0
 10
-56.418300000000002
 20
43.535299999999999
 30
0.0
 10
-56.394199999999998
 20
43.431199999999997
 30
0.0
 10
-56.394199999999998
 20
43.431199999999997
 30
0.0
 10
-56.369100000000003
 20
43.323700000000002
 30
0.0
 10
-56.304000000000002
 20
43.240499999999997
 30
0.0
 10
-56.197699999999998
 20
43.1813
 30
0.0
 10
-56.197699999999998
 20
43.1813
 30
0.0
 10
-56.091299999999997
 20
43.122100000000003
 30
0.0
 10
-55.968600000000002
 20
43.108499999999999
 30
0.0
 10
-55.8292
 20
43.140799999999999
 30
0.0
 10
-55.8292
 20
43.140799999999999
 30
0.0
 10
-55.703899999999997
 20
43.169899999999998
 30
0.0
 10
-55.610700000000001
 20
43.231299999999997
 30
0.0
 10
-55.549799999999998
 20
43.3249
 30
0.0
 10
-55.549799999999998
 20
43.3249
 30
0.0
 10
-55.489199999999997
 20
43.418999999999997
 30
0.0
 10
-55.471499999999999
 20
43.5214
 30
0.0
 10
-55.497500000000002
 20
43.632100000000001
 30
0.0
 10
-55.497500000000002
 20
43.632100000000001
 30
0.0
 10
-55.523400000000002
 20
43.744199999999999
 30
0.0
 10
-55.5839
 20
43.827100000000002
 30
0.0
 10
-55.679000000000002
 20
43.881
 30
0.0
 10
-55.679000000000002
 20
43.881
 30
0.0
 10
-55.773600000000002
 20
43.934800000000003
 30
0.0
 10
-55.890599999999999
 20
43.945599999999999
 30
0.0
 10
-56.029200000000003
 20
43.9133
 30
0.0
  0
SPLINE
  5
65
100
AcDbEntity
  8
Layer 1
100
AcDbSpline
210
0.0
220
0.0
230
1.0
 70
     1
 71
     3
 72
    92
 73
    88
 74
     0
 42
0.0000000001
 43
0.0000000001
 40
0.0
 40
0.0
 40
0.0
 40
0.0
 40
0.0454545454545455
 40
0.0454545454545455
 40
0.0454545454545455
 40
0.0454545454545455
 40
0.0909090909090909
 40
0.0909090909090909
 40
0.0909090909090909
 40
0.0909090909090909
 40
0.1363636363636364
 40
0.1363636363636364
 40
0.1363636363636364
 40
0.1363636363636364
 40
0.1818181818181818
 40
0.1818181818181818
 40
0.1818181818181818
 40
0.1818181818181818
 40
0.2272727272727273
 40
0.2272727272727273
 40
0.2272727272727273
 40
0.2272727272727273
 40
0.2727272727272728
 40
0.2727272727272728
 40
0.2727272727272728
 40
0.2727272727272728
 40
0.3181818181818182
 40
0.3181818181818182
 40
0.3181818181818182
 40
0.3181818181818182
 40
0.3636363636363637
 40
0.3636363636363637
 40
0.3636363636363637
 40
0.3636363636363637
 40
0.4090909090909092
 40
0.4090909090909092
 40
0.4090909090909092
 40
0.4090909090909092
 40
0.4545454545454546
 40
0.4545454545454546
 40
0.4545454545454546
 40
0.4545454545454546
 40
0.5000000000000001
 40
0.5000000000000001
 40
0.5000000000000001
 40
0.5000000000000001
 40
0.5454545454545455
 40
0.5454545454545455
 40
0.5454545454545455
 40
0.5454545454545455
 40
0.5909090909090909
 40
0.5909090909090909
 40
0.5909090909090909
 40
0.5909090909090909
 40
0.6363636363636364
 40
0.6363636363636364
 40
0.6363636363636364
 40
0.6363636363636364
 40
0.6818181818181818
 40
0.6818181818181818
 40
0.6818181818181818
 40
0.6818181818181818
 40
0.7272727272727272
 40
0.7272727272727272
 40
0.7272727272727272
 40
0.7272727272727272
 40
0.7727272727272726
 40
0.7727272727272726
 40
0.7727272727272726
 40
0.7727272727272726
 40
0.818181818181818
 40
0.818181818181818
 40
0.818181818181818
 40
0.818181818181818
 40
0.8636363636363634
 40
0.8636363636363634
 40
0.8636363636363634
 40
0.8636363636363634
 40
0.9090909090909088
 40
0.9090909090909088
 40
0.9090909090909088
 40
0.9090909090909088
 40
0.9545454545454543
 40
0.9545454545454543
 40
0.9545454545454543
 40
0.9545454545454543
 40
1.0
 40
1.0
 40
1.0
 40
1.0
 10
-55.299199999999999
 20
44.651200000000003
 30
0.0
 10
-55.299199999999999
 20
44.651200000000003
 30
0.0
 10
-55.374600000000001
 20
44.878500000000003
 30
0.0
 10
-55.374600000000001
 20
44.878500000000003
 30
0.0
 10
-55.374600000000001
 20
44.878500000000003
 30
0.0
 10
-55.270200000000003
 20
44.923299999999998
 30
0.0
 10
-55.1997
 20
44.979700000000001
 30
0.0
 10
-55.162999999999997
 20
45.046199999999999
 30
0.0
 10
-55.162999999999997
 20
45.046199999999999
 30
0.0
 10
-55.1267
 20
45.113199999999999
 30
0.0
 10
-55.118600000000001
 20
45.190300000000001
 30
0.0
 10
-55.138599999999997
 20
45.277000000000001
 30
0.0
 10
-55.138599999999997
 20
45.277000000000001
 30
0.0
 10
-55.155900000000003
 20
45.351399999999998
 30
0.0
 10
-55.188299999999998
 20
45.412399999999998
 30
0.0
 10
-55.234999999999999
 20
45.4602
 30
0.0
 10
-55.234999999999999
 20
45.4602
 30
0.0
 10
-55.2821
 20
45.508600000000001
 30
0.0
 10
-55.338299999999997
 20
45.543799999999997
 30
0.0
 10
-55.403100000000002
 20
45.566499999999998
 30
0.0
 10
-55.403100000000002
 20
45.566499999999998
 30
0.0
 10
-55.468299999999999
 20
45.588999999999999
 30
0.0
 10
-55.5518
 20
45.601500000000001
 30
0.0
 10
-55.654400000000003
 20
45.603200000000001
 30
0.0
 10
-55.654400000000003
 20
45.603200000000001
 30
0.0
 10
-55.756399999999999
 20
45.604900000000001
 30
0.0
 10
-55.857700000000001
 20
45.594000000000001
 30
0.0
 10
-55.957999999999998
 20
45.570700000000002
 30
0.0
 10
-55.957999999999998
 20
45.570700000000002
 30
0.0
 10
-55.968899999999998
 20
45.5685
 30
0.0
 10
-55.984900000000003
 20
45.564
 30
0.0
 10
-56.006100000000004
 20
45.558399999999999
 30
0.0
 10
-56.006100000000004
 20
45.558399999999999
 30
0.0
 10
-55.917900000000003
 20
45.5276
 30
0.0
 10
-55.840200000000003
 20
45.476199999999999
 30
0.0
 10
-55.773000000000003
 20
45.403700000000001
 30
0.0
 10
-55.773000000000003
 20
45.403700000000001
 30
0.0
 10
-55.705500000000001
 20
45.331299999999999
 30
0.0
 10
-55.660499999999999
 20
45.246200000000002
 30
0.0
 10
-55.638199999999998
 20
45.148699999999998
 30
0.0
 10
-55.638199999999998
 20
45.148699999999998
 30
0.0
 10
-55.600499999999997
 20
44.985599999999998
 30
0.0
 10
-55.627400000000002
 20
44.8339
 30
0.0
 10
-55.719299999999997
 20
44.694000000000003
 30
0.0
 10
-55.719299999999997
 20
44.694000000000003
 30
0.0
 10
-55.811199999999999
 20
44.553600000000003
 30
0.0
 10
-55.954000000000001
 20
44.461100000000002
 30
0.0
 10
-56.147199999999998
 20
44.416600000000003
 30
0.0
 10
-56.147199999999998
 20
44.416600000000003
 30
0.0
 10
-56.347000000000001
 20
44.370199999999997
 30
0.0
 10
-56.521299999999997
 20
44.3917
 30
0.0
 10
-56.670299999999997
 20
44.481299999999997
 30
0.0
 10
-56.670299999999997
 20
44.481299999999997
 30
0.0
 10
-56.819099999999999
 20
44.570900000000002
 30
0.0
 10
-56.914000000000001
 20
44.704300000000003
 30
0.0
 10
-56.955500000000001
 20
44.881399999999999
 30
0.0
 10
-56.955500000000001
 20
44.881399999999999
 30
0.0
 10
-56.984999999999999
 20
45.009099999999997
 30
0.0
 10
-56.977499999999999
 20
45.1342
 30
0.0
 10
-56.933300000000003
 20
45.2562
 30
0.0
 10
-56.933300000000003
 20
45.2562
 30
0.0
 10
-56.889000000000003
 20
45.378100000000003
 30
0.0
 10
-56.809600000000003
 20
45.481499999999997
 30
0.0
 10
-56.694699999999997
 20
45.566200000000002
 30
0.0
 10
-56.694699999999997
 20
45.566200000000002
 30
0.0
 10
-56.579700000000003
 20
45.6509
 30
0.0
 10
-56.401899999999998
 20
45.720999999999997
 30
0.0
 10
-56.1601
 20
45.776899999999998
 30
0.0
 10
-56.1601
 20
45.776899999999998
 30
0.0
 10
-55.9084
 20
45.835700000000003
 30
0.0
 10
-55.701799999999999
 20
45.854799999999997
 30
0.0
 10
-55.540100000000002
 20
45.834699999999998
 30
0.0
 10
-55.540100000000002
 20
45.834699999999998
 30
0.0
 10
-55.378500000000003
 20
45.814599999999999
 30
0.0
 10
-55.246299999999998
 20
45.759500000000003
 30
0.0
 10
-55.143500000000003
 20
45.669800000000002
 30
0.0
 10
-55.143500000000003
 20
45.669800000000002
 30
0.0
 10
-55.040799999999997
 20
45.579999999999998
 30
0.0
 10
-54.972499999999997
 20
45.462400000000002
 30
0.0
 10
-54.938899999999997
 20
45.317700000000002
 30
0.0
 10
-54.938899999999997
 20
45.317700000000002
 30
0.0
 10
-54.903399999999998
 20
45.163600000000002
 30
0.0
 10
-54.916600000000003
 20
45.028300000000002
 30
0.0
 10
-54.979599999999998
 20
44.910699999999999
 30
0.0
 10
-54.979599999999998
 20
44.910699999999999
 30
0.0
 10
-55.0426
 20
44.793100000000003
 30
0.0
 10
-55.1492
 20
44.706899999999997
 30
0.0
 10
-55.299199999999999
 20
44.651200000000003
 30
0.0
  0
SPLINE
  5
66
100
AcDbEntity
  8
Layer 1
100
AcDbSpline
210
0.0
220
0.0
230
1.0
 70
     1
 71
     3
 72
    36
 73
    32
 74
     0
 42
0.0000000001
 43
0.0000000001
 40
0.0
 40
0.0
 40
0.0
 40
0.0
 40
0.125
 40
0.125
 40
0.125
 40
0.125
 40
0.25
 40
0.25
 40
0.25
 40
0.25
 40
0.375
 40
0.375
 40
0.375
 40
0.375
 40
0.5
 40
0.5
 40
0.5
 40
0.5
 40
0.625
 40
0.625
 40
0.625
 40
0.625
 40
0.75
 40
0.75
 40
0.75
 40
0.75
 40
0.875
 40
0.875
 40
0.875
 40
0.875
 40
1.0
 40
1.0
 40
1.0
 40
1.0
 10
-56.396999999999998
 20
45.4392
 30
0.0
 10
-56.536000000000001
 20
45.4069
 30
0.0
 10
-56.637700000000002
 20
45.344700000000003
 30
0.0
 10
-56.701900000000002
 20
45.252099999999999
 30
0.0
 10
-56.701900000000002
 20
45.252099999999999
 30
0.0
 10
-56.765999999999998
 20
45.159399999999998
 30
0.0
 10
-56.786099999999998
 20
45.061199999999999
 30
0.0
 10
-56.762
 20
44.957099999999997
 30
0.0
 10
-56.762
 20
44.957099999999997
 30
0.0
 10
-56.736899999999999
 20
44.849600000000002
 30
0.0
 10
-56.671799999999998
 20
44.766399999999997
 30
0.0
 10
-56.5655
 20
44.7072
 30
0.0
 10
-56.5655
 20
44.7072
 30
0.0
 10
-56.459099999999999
 20
44.648000000000003
 30
0.0
 10
-56.336399999999998
 20
44.634399999999999
 30
0.0
 10
-56.197000000000003
 20
44.666699999999999
 30
0.0
 10
-56.197000000000003
 20
44.666699999999999
 30
0.0
 10
-56.0717
 20
44.695799999999998
 30
0.0
 10
-55.978499999999997
 20
44.757199999999997
 30
0.0
 10
-55.9176
 20
44.8508
 30
0.0
 10
-55.9176
 20
44.8508
 30
0.0
 10
-55.856999999999999
 20
44.944899999999997
 30
0.0
 10
-55.839300000000001
 20
45.0473
 30
0.0
 10
-55.865299999999998
 20
45.158000000000001
 30
0.0
 10
-55.865299999999998
 20
45.158000000000001
 30
0.0
 10
-55.891199999999998
 20
45.270099999999999
 30
0.0
 10
-55.951700000000002
 20
45.353000000000002
 30
0.0
 10
-56.046799999999998
 20
45.4069
 30
0.0
 10
-56.046799999999998
 20
45.4069
 30
0.0
 10
-56.141399999999997
 20
45.460700000000003
 30
0.0
 10
-56.258400000000002
 20
45.471499999999999
 30
0.0
 10
-56.396999999999998
 20
45.4392
 30
0.0
  0
SPLINE
  5
67
100
AcDbEntity
  8
Layer 1
100
AcDbSpline
210
0.0
220
0.0
230
1.0
 70
     1
 71
     3
 72
    92
 73
    88
 74
     0
 42
0.0000000001
 43
0.0000000001
 40
0.0
 40
0.0
 40
0.0
 40
0.0
 40
0.0454545454545455
 40
0.0454545454545455
 40
0.0454545454545455
 40
0.0454545454545455
 40
0.0909090909090909
 40
0.0909090909090909
 40
0.0909090909090909
 40
0.0909090909090909
 40
0.1363636363636364
 40
0.1363636363636364
 40
0.1363636363636364
 40
0.1363636363636364
 40
0.1818181818181818
 40
0.1818181818181818
 40
0.1818181818181818
 40
0.1818181818181818
 40
0.2272727272727273
 40
0.2272727272727273
 40
0.2272727272727273
 40
0.2272727272727273
 40
0.2727272727272728
 40
0.2727272727272728
 40
0.2727272727272728
 40
0.2727272727272728
 40
0.3181818181818182
 40
0.3181818181818182
 40
0.3181818181818182
 40
0.3181818181818182
 40
0.3636363636363637
 40
0.3636363636363637
 40
0.3636363636363637
 40
0.3636363636363637
 40
0.4090909090909092
 40
0.4090909090909092
 40
0.4090909090909092
 40
0.4090909090909092
 40
0.4545454545454546
 40
0.4545454545454546
 40
0.4545454545454546
 40
0.4545454545454546
 40
0.5000000000000001
 40
0.5000000000000001
 40
0.5000000000000001
 40
0.5000000000000001
 40
0.5454545454545455
 40
0.5454545454545455
 40
0.5454545454545455
 40
0.5454545454545455
 40
0.5909090909090909
 40
0.5909090909090909
 40
0.5909090909090909
 40
0.5909090909090909
 40
0.6363636363636364
 40
0.6363636363636364
 40
0.6363636363636364
 40
0.6363636363636364
 40
0.6818181818181818
 40
0.6818181818181818
 40
0.6818181818181818
 40
0.6818181818181818
 40
0.7272727272727272
 40
0.7272727272727272
 40
0.7272727272727272
 40
0.7272727272727272
 40
0.7727272727272726
 40
0.7727272727272726
 40
0.7727272727272726
 40
0.7727272727272726
 40
0.818181818181818
 40
0.818181818181818
 40
0.818181818181818
 40
0.818181818181818
 40
0.8636363636363634
 40
0.8636363636363634
 40
0.8636363636363634
 40
0.8636363636363634
 40
0.9090909090909088
 40
0.9090909090909088
 40
0.9090909090909088
 40
0.9090909090909088
 40
0.9545454545454543
 40
0.9545454545454543
 40
0.9545454545454543
 40
0.9545454545454543
 40
1.0
 40
1.0
 40
1.0
 40
1.0
 10
-23.035699999999999
 20
41.474400000000003
 30
0.0
 10
-23.035699999999999
 20
41.474400000000003
 30
0.0
 10
-22.809799999999999
 20
41.398699999999998
 30
0.0
 10
-22.809799999999999
 20
41.398699999999998
 30
0.0
 10
-22.809799999999999
 20
41.398699999999998
 30
0.0
 10
-22.809799999999999
 20
41.398699999999998
 30
0.0
 10
-23.234000000000002
 20
40.132800000000003
 30
0.0
 10
-23.234000000000002
 20
40.132800000000003
 30
0.0
 10
-23.234000000000002
 20
40.132800000000003
 30
0.0
 10
-23.291399999999999
 20
40.150399999999998
 30
0.0
 10
-23.342500000000001
 20
40.177500000000002
 30
0.0
 10
-23.387899999999998
 20
40.215299999999999
 30
0.0
 10
-23.387899999999998
 20
40.215299999999999
 30
0.0
 10
-23.4635
 20
40.276299999999999
 30
0.0
 10
-23.531300000000002
 20
40.356499999999997
 30
0.0
 10
-23.591200000000001
 20
40.455500000000001
 30
0.0
 10
-23.591200000000001
 20
40.455500000000001
 30
0.0
 10
-23.6509
 20
40.554499999999997
 30
0.0
 10
-23.712900000000001
 20
40.689399999999999
 30
0.0
 10
-23.7776
 20
40.860300000000002
 30
0.0
 10
-23.7776
 20
40.860300000000002
 30
0.0
 10
-23.878699999999998
 20
41.125599999999999
 30
0.0
 10
-23.966799999999999
 20
41.311199999999999
 30
0.0
 10
-24.042100000000001
 20
41.4178
 30
0.0
 10
-24.042100000000001
 20
41.4178
 30
0.0
 10
-24.117000000000001
 20
41.524500000000003
 30
0.0
 10
-24.198899999999998
 20
41.593000000000004
 30
0.0
 10
-24.287700000000001
 20
41.622500000000002
 30
0.0
 10
-24.287700000000001
 20
41.622500000000002
 30
0.0
 10
-24.3812
 20
41.654000000000003
 30
0.0
 10
-24.4711
 20
41.646700000000003
 30
0.0
 10
-24.557400000000001
 20
41.601500000000001
 30
0.0
 10
-24.557400000000001
 20
41.601500000000001
 30
0.0
 10
-24.643599999999999
 20
41.556699999999999
 30
0.0
 10
-24.704599999999999
 20
41.480200000000004
 30
0.0
 10
-24.7408
 20
41.373199999999997
 30
0.0
 10
-24.7408
 20
41.373199999999997
 30
0.0
 10
-24.778400000000001
 20
41.259900000000002
 30
0.0
 10
-24.775099999999998
 20
41.157899999999998
 30
0.0
 10
-24.729800000000001
 20
41.067399999999999
 30
0.0
 10
-24.729800000000001
 20
41.067399999999999
 30
0.0
 10
-24.6846
 20
40.976900000000001
 30
0.0
 10
-24.602
 20
40.910699999999999
 30
0.0
 10
-24.482199999999999
 20
40.869799999999998
 30
0.0
 10
-24.482199999999999
 20
40.869799999999998
 30
0.0
 10
-24.482199999999999
 20
40.869799999999998
 30
0.0
 10
-24.588000000000001
 20
40.636400000000002
 30
0.0
 10
-24.588000000000001
 20
40.636400000000002
 30
0.0
 10
-24.588000000000001
 20
40.636400000000002
 30
0.0
 10
-24.762699999999999
 20
40.713299999999997
 30
0.0
 10
-24.8794
 20
40.8215
 30
0.0
 10
-24.9377
 20
40.960999999999999
 30
0.0
 10
-24.9377
 20
40.960999999999999
 30
0.0
 10
-24.995899999999999
 20
41.100900000000003
 30
0.0
 10
-24.994299999999999
 20
41.261800000000001
 30
0.0
 10
-24.933399999999999
 20
41.4435
 30
0.0
 10
-24.933399999999999
 20
41.4435
 30
0.0
 10
-24.8719
 20
41.627200000000002
 30
0.0
 10
-24.772200000000002
 20
41.755699999999997
 30
0.0
 10
-24.634499999999999
 20
41.828499999999998
 30
0.0
 10
-24.634499999999999
 20
41.828499999999998
 30
0.0
 10
-24.496400000000001
 20
41.901899999999998
 30
0.0
 10
-24.352399999999999
 20
41.912999999999997
 30
0.0
 10
-24.201599999999999
 20
41.862499999999997
 30
0.0
 10
-24.201599999999999
 20
41.862499999999997
 30
0.0
 10
-24.125
 20
41.836799999999997
 30
0.0
 10
-24.055099999999999
 20
41.7956
 30
0.0
 10
-23.991399999999999
 20
41.739800000000002
 30
0.0
 10
-23.991399999999999
 20
41.739800000000002
 30
0.0
 10
-23.928100000000001
 20
41.683599999999998
 30
0.0
 10
-23.8673
 20
41.6053
 30
0.0
 10
-23.809799999999999
 20
41.505299999999998
 30
0.0
 10
-23.809799999999999
 20
41.505299999999998
 30
0.0
 10
-23.752400000000002
 20
41.404899999999998
 30
0.0
 10
-23.680599999999998
 20
41.246600000000001
 30
0.0
 10
-23.5945
 20
41.029899999999998
 30
0.0
 10
-23.5945
 20
41.029899999999998
 30
0.0
 10
-23.523199999999999
 20
40.8489
 30
0.0
 10
-23.473400000000002
 20
40.7316
 30
0.0
 10
-23.444400000000002
 20
40.677399999999999
 30
0.0
 10
-23.444400000000002
 20
40.677399999999999
 30
0.0
 10
-23.415900000000001
 20
40.623199999999997
 30
0.0
 10
-23.384699999999999
 20
40.575600000000001
 30
0.0
 10
-23.3505
 20
40.535400000000003
 30
0.0
 10
-23.3505
 20
40.535400000000003
 30
0.0
 10
-23.3505
 20
40.535400000000003
 30
0.0
 10
-23.035699999999999
 20
41.474400000000003
 30
0.0
 10
-23.035699999999999
 20
41.474400000000003
 30
0.0
  0
SPLINE
  5
68
100
AcDbEntity
  8
Layer 1
100
AcDbSpline
210
0.0
220
0.0
230
1.0
 70
     1
 71
     3
 72
    52
 73
    48
 74
     0
 42
0.0000000001
 43
0.0000000001
 40
0.0
 40
0.0
 40
0.0
 40
0.0
 40
0.0833333333333333
 40
0.0833333333333333
 40
0.0833333333333333
 40
0.0833333333333333
 40
0.1666666666666667
 40
0.1666666666666667
 40
0.1666666666666667
 40
0.1666666666666667
 40
0.25
 40
0.25
 40
0.25
 40
0.25
 40
0.3333333333333333
 40
0.3333333333333333
 40
0.3333333333333333
 40
0.3333333333333333
 40
0.4166666666666666
 40
0.4166666666666666
 40
0.4166666666666666
 40
0.4166666666666666
 40
0.4999999999999999
 40
0.4999999999999999
 40
0.4999999999999999
 40
0.4999999999999999
 40
0.5833333333333333
 40
0.5833333333333333
 40
0.5833333333333333
 40
0.5833333333333333
 40
0.6666666666666666
 40
0.6666666666666666
 40
0.6666666666666666
 40
0.6666666666666666
 40
0.75
 40
0.75
 40
0.75
 40
0.75
 40
0.8333333333333334
 40
0.8333333333333334
 40
0.8333333333333334
 40
0.8333333333333334
 40
0.9166666666666667
 40
0.9166666666666667
 40
0.9166666666666667
 40
0.9166666666666667
 40
1.0
 40
1.0
 40
1.0
 40
1.0
 10
-22.701000000000001
 20
41.749099999999999
 30
0.0
 10
-22.701000000000001
 20
41.749099999999999
 30
0.0
 10
-24.615600000000001
 20
42.391300000000001
 30
0.0
 10
-24.615600000000001
 20
42.391300000000001
 30
0.0
 10
-24.615600000000001
 20
42.391300000000001
 30
0.0
 10
-24.615600000000001
 20
42.391300000000001
 30
0.0
 10
-24.3947
 20
43.050800000000002
 30
0.0
 10
-24.3947
 20
43.050800000000002
 30
0.0
 10
-24.3947
 20
43.050800000000002
 30
0.0
 10
-24.3447
 20
43.1997
 30
0.0
 10
-24.297699999999999
 20
43.310099999999998
 30
0.0
 10
-24.252800000000001
 20
43.382300000000001
 30
0.0
 10
-24.252800000000001
 20
43.382300000000001
 30
0.0
 10
-24.190799999999999
 20
43.483600000000003
 30
0.0
 10
-24.113700000000001
 20
43.561900000000001
 30
0.0
 10
-24.021799999999999
 20
43.6175
 30
0.0
 10
-24.021799999999999
 20
43.6175
 30
0.0
 10
-23.9025
 20
43.689900000000002
 30
0.0
 10
-23.7684
 20
43.728900000000003
 30
0.0
 10
-23.6187
 20
43.734400000000001
 30
0.0
 10
-23.6187
 20
43.734400000000001
 30
0.0
 10
-23.469100000000001
 20
43.739899999999999
 30
0.0
 10
-23.308800000000002
 20
43.713900000000002
 30
0.0
 10
-23.138300000000001
 20
43.656700000000001
 30
0.0
 10
-23.138300000000001
 20
43.656700000000001
 30
0.0
 10
-22.992699999999999
 20
43.608199999999997
 30
0.0
 10
-22.869599999999998
 20
43.547899999999998
 30
0.0
 10
-22.7684
 20
43.475999999999999
 30
0.0
 10
-22.7684
 20
43.475999999999999
 30
0.0
 10
-22.6675
 20
43.404600000000002
 30
0.0
 10
-22.589300000000001
 20
43.329999999999998
 30
0.0
 10
-22.5336
 20
43.252200000000002
 30
0.0
 10
-22.5336
 20
43.252200000000002
 30
0.0
 10
-22.477499999999999
 20
43.174300000000002
 30
0.0
 10
-22.4392
 20
43.097000000000001
 30
0.0
 10
-22.418399999999998
 20
43.019300000000001
 30
0.0
 10
-22.418399999999998
 20
43.019300000000001
 30
0.0
 10
-22.397099999999998
 20
42.942100000000003
 30
0.0
 10
-22.390799999999999
 20
42.855499999999999
 30
0.0
 10
-22.398700000000002
 20
42.758699999999997
 30
0.0
 10
-22.398700000000002
 20
42.758699999999997
 30
0.0
 10
-22.4071
 20
42.662300000000002
 30
0.0
 10
-22.430599999999998
 20
42.556100000000001
 30
0.0
 10
-22.469200000000001
 20
42.439999999999998
 30
0.0
 10
-22.469200000000001
 20
42.439999999999998
 30
0.0
 10
-22.469200000000001
 20
42.439999999999998
 30
0.0
 10
-22.701000000000001
 20
41.749099999999999
 30
0.0
 10
-22.701000000000001
 20
41.749099999999999
 30
0.0
  0
SPLINE
  5
69
100
AcDbEntity
  8
Layer 1
100
AcDbSpline
210
0.0
220
0.0
230
1.0
 70
     1
 71
     3
 72
    44
 73
    40
 74
     0
 42
0.0000000001
 43
0.0000000001
 40
0.0
 40
0.0
 40
0.0
 40
0.0
 40
0.1
 40
0.1
 40
0.1
 40
0.1
 40
0.2
 40
0.2
 40
0.2
 40
0.2
 40
0.3
 40
0.3
 40
0.3
 40
0.3
 40
0.4
 40
0.4
 40
0.4
 40
0.4
 40
0.5
 40
0.5
 40
0.5
 40
0.5
 40
0.6
 40
0.6
 40
0.6
 40
0.6
 40
0.7
 40
0.7
 40
0.7
 40
0.7
 40
0.7999999999999999
 40
0.7999999999999999
 40
0.7999999999999999
 40
0.7999999999999999
 40
0.8999999999999999
 40
0.8999999999999999
 40
0.8999999999999999
 40
0.8999999999999999
 40
1.0
 40
1.0
 40
1.0
 40
1.0
 10
-22.841699999999999
 20
42.078400000000002
 30
0.0
 10
-22.841699999999999
 20
42.078400000000002
 30
0.0
 10
-22.705100000000002
 20
42.487099999999998
 30
0.0
 10
-22.705100000000002
 20
42.487099999999998
 30
0.0
 10
-22.705100000000002
 20
42.487099999999998
 30
0.0
 10
-22.662700000000001
 20
42.613399999999999
 30
0.0
 10
-22.641200000000001
 20
42.716299999999997
 30
0.0
 10
-22.6404
 20
42.796300000000002
 30
0.0
 10
-22.6404
 20
42.796300000000002
 30
0.0
 10
-22.640000000000001
 20
42.875799999999998
 30
0.0
 10
-22.6539
 20
42.944000000000003
 30
0.0
 10
-22.682300000000001
 20
43.001100000000001
 30
0.0
 10
-22.682300000000001
 20
43.001100000000001
 30
0.0
 10
-22.722000000000001
 20
43.081699999999998
 30
0.0
 10
-22.786999999999999
 20
43.155299999999997
 30
0.0
 10
-22.877600000000001
 20
43.222900000000003
 30
0.0
 10
-22.877600000000001
 20
43.222900000000003
 30
0.0
 10
-22.967600000000001
 20
43.290599999999998
 30
0.0
 10
-23.085000000000001
 20
43.348500000000001
 30
0.0
 10
-23.229600000000001
 20
43.396999999999998
 30
0.0
 10
-23.229600000000001
 20
43.396999999999998
 30
0.0
 10
-23.4298
 20
43.464199999999998
 30
0.0
 10
-23.594799999999999
 20
43.482599999999998
 30
0.0
 10
-23.7242
 20
43.453000000000003
 30
0.0
 10
-23.7242
 20
43.453000000000003
 30
0.0
 10
-23.854199999999999
 20
43.423499999999997
 30
0.0
 10
-23.9527
 20
43.367400000000004
 30
0.0
 10
-24.020800000000001
 20
43.285899999999998
 30
0.0
 10
-24.020800000000001
 20
43.285899999999998
 30
0.0
 10
-24.07
 20
43.226799999999997
 30
0.0
 10
-24.119800000000001
 20
43.121600000000001
 30
0.0
 10
-24.170300000000001
 20
42.9709
 30
0.0
 10
-24.170300000000001
 20
42.9709
 30
0.0
 10
-24.170300000000001
 20
42.9709
 30
0.0
 10
-24.3049
 20
42.568800000000003
 30
0.0
 10
-24.3049
 20
42.568800000000003
 30
0.0
 10
-24.3049
 20
42.568800000000003
 30
0.0
 10
-24.3049
 20
42.568800000000003
 30
0.0
 10
-22.841699999999999
 20
42.078400000000002
 30
0.0
 10
-22.841699999999999
 20
42.078400000000002
 30
0.0
  0
SPLINE
  5
6A
100
AcDbEntity
  8
Layer 1
100
AcDbSpline
210
0.0
220
0.0
230
1.0
 70
     1
 71
     3
 72
    92
 73
    88
 74
     0
 42
0.0000000001
 43
0.0000000001
 40
0.0
 40
0.0
 40
0.0
 40
0.0
 40
0.0454545454545455
 40
0.0454545454545455
 40
0.0454545454545455
 40
0.0454545454545455
 40
0.0909090909090909
 40
0.0909090909090909
 40
0.0909090909090909
 40
0.0909090909090909
 40
0.1363636363636364
 40
0.1363636363636364
 40
0.1363636363636364
 40
0.1363636363636364
 40
0.1818181818181818
 40
0.1818181818181818
 40
0.1818181818181818
 40
0.1818181818181818
 40
0.2272727272727273
 40
0.2272727272727273
 40
0.2272727272727273
 40
0.2272727272727273
 40
0.2727272727272728
 40
0.2727272727272728
 40
0.2727272727272728
 40
0.2727272727272728
 40
0.3181818181818182
 40
0.3181818181818182
 40
0.3181818181818182
 40
0.3181818181818182
 40
0.3636363636363637
 40
0.3636363636363637
 40
0.3636363636363637
 40
0.3636363636363637
 40
0.4090909090909092
 40
0.4090909090909092
 40
0.4090909090909092
 40
0.4090909090909092
 40
0.4545454545454546
 40
0.4545454545454546
 40
0.4545454545454546
 40
0.4545454545454546
 40
0.5000000000000001
 40
0.5000000000000001
 40
0.5000000000000001
 40
0.5000000000000001
 40
0.5454545454545455
 40
0.5454545454545455
 40
0.5454545454545455
 40
0.5454545454545455
 40
0.5909090909090909
 40
0.5909090909090909
 40
0.5909090909090909
 40
0.5909090909090909
 40
0.6363636363636364
 40
0.6363636363636364
 40
0.6363636363636364
 40
0.6363636363636364
 40
0.6818181818181818
 40
0.6818181818181818
 40
0.6818181818181818
 40
0.6818181818181818
 40
0.7272727272727272
 40
0.7272727272727272
 40
0.7272727272727272
 40
0.7272727272727272
 40
0.7727272727272726
 40
0.7727272727272726
 40
0.7727272727272726
 40
0.7727272727272726
 40
0.818181818181818
 40
0.818181818181818
 40
0.818181818181818
 40
0.818181818181818
 40
0.8636363636363634
 40
0.8636363636363634
 40
0.8636363636363634
 40
0.8636363636363634
 40
0.9090909090909088
 40
0.9090909090909088
 40
0.9090909090909088
 40
0.9090909090909088
 40
0.9545454545454543
 40
0.9545454545454543
 40
0.9545454545454543
 40
0.9545454545454543
 40
1.0
 40
1.0
 40
1.0
 40
1.0
 10
-22.526399999999999
 20
43.773299999999999
 30
0.0
 10
-22.526399999999999
 20
43.773299999999999
 30
0.0
 10
-22.471399999999999
 20
44.006399999999999
 30
0.0
 10
-22.471399999999999
 20
44.006399999999999
 30
0.0
 10
-22.471399999999999
 20
44.006399999999999
 30
0.0
 10
-22.358499999999999
 20
43.989899999999999
 30
0.0
 10
-22.269600000000001
 20
44.000799999999998
 30
0.0
 10
-22.203600000000002
 20
44.038699999999999
 30
0.0
 10
-22.203600000000002
 20
44.038699999999999
 30
0.0
 10
-22.137599999999999
 20
44.076500000000003
 30
0.0
 10
-22.090299999999999
 20
44.137900000000002
 30
0.0
 10
-22.061699999999998
 20
44.222000000000001
 30
0.0
 10
-22.061699999999998
 20
44.222000000000001
 30
0.0
 10
-22.0379
 20
44.2943
 30
0.0
 10
-22.032900000000001
 20
44.363500000000002
 30
0.0
 10
-22.047699999999999
 20
44.428899999999999
 30
0.0
 10
-22.047699999999999
 20
44.428899999999999
 30
0.0
 10
-22.0625
 20
44.494300000000003
 30
0.0
 10
-22.091899999999999
 20
44.553699999999999
 30
0.0
 10
-22.1355
 20
44.607100000000003
 30
0.0
 10
-22.1355
 20
44.607100000000003
 30
0.0
 10
-22.179400000000001
 20
44.660299999999999
 30
0.0
 10
-22.2441
 20
44.714700000000001
 30
0.0
 10
-22.330500000000001
 20
44.7697
 30
0.0
 10
-22.330500000000001
 20
44.7697
 30
0.0
 10
-22.4163
 20
44.825000000000003
 30
0.0
 10
-22.508299999999998
 20
44.868699999999997
 30
0.0
 10
-22.606100000000001
 20
44.901499999999999
 30
0.0
 10
-22.606100000000001
 20
44.901499999999999
 30
0.0
 10
-22.616299999999999
 20
44.904899999999998
 30
0.0
 10
-22.631799999999998
 20
44.909599999999998
 30
0.0
 10
-22.653500000000001
 20
44.915900000000001
 30
0.0
 10
-22.653500000000001
 20
44.915900000000001
 30
0.0
 10
-22.594000000000001
 20
44.843600000000002
 30
0.0
 10
-22.5548
 20
44.7592
 30
0.0
 10
-22.535499999999999
 20
44.662300000000002
 30
0.0
 10
-22.535499999999999
 20
44.662300000000002
 30
0.0
 10
-22.516100000000002
 20
44.564900000000002
 30
0.0
 10
-22.522600000000001
 20
44.468899999999998
 30
0.0
 10
-22.554500000000001
 20
44.374000000000002
 30
0.0
 10
-22.554500000000001
 20
44.374000000000002
 30
0.0
 10
-22.607399999999998
 20
44.215699999999998
 30
0.0
 10
-22.709900000000001
 20
44.100900000000003
 30
0.0
 10
-22.861699999999999
 20
44.029499999999999
 30
0.0
 10
-22.861699999999999
 20
44.029499999999999
 30
0.0
 10
-23.013400000000001
 20
43.958599999999997
 30
0.0
 10
-23.183199999999999
 20
43.954099999999997
 30
0.0
 10
-23.371600000000001
 20
44.017499999999998
 30
0.0
 10
-23.371600000000001
 20
44.017499999999998
 30
0.0
 10
-23.5656
 20
44.082700000000003
 30
0.0
 10
-23.7029
 20
44.192
 30
0.0
 10
-23.782800000000002
 20
44.346499999999999
 30
0.0
 10
-23.782800000000002
 20
44.346499999999999
 30
0.0
 10
-23.863099999999999
 20
44.500700000000002
 30
0.0
 10
-23.874199999999998
 20
44.663899999999998
 30
0.0
 10
-23.816099999999999
 20
44.836300000000001
 30
0.0
 10
-23.816099999999999
 20
44.836300000000001
 30
0.0
 10
-23.774699999999999
 20
44.960799999999999
 30
0.0
 10
-23.7027
 20
45.063600000000001
 30
0.0
 10
-23.601299999999998
 20
45.143999999999998
 30
0.0
 10
-23.601299999999998
 20
45.143999999999998
 30
0.0
 10
-23.499300000000002
 20
45.225000000000001
 30
0.0
 10
-23.377800000000001
 20
45.271000000000001
 30
0.0
 10
-23.235700000000001
 20
45.283200000000001
 30
0.0
 10
-23.235700000000001
 20
45.283200000000001
 30
0.0
 10
-23.093599999999999
 20
45.295299999999997
 30
0.0
 10
-22.905100000000001
 20
45.261699999999998
 30
0.0
 10
-22.669799999999999
 20
45.183100000000003
 30
0.0
 10
-22.669799999999999
 20
45.183100000000003
 30
0.0
 10
-22.4251
 20
45.100700000000003
 30
0.0
 10
-22.2392
 20
45.009099999999997
 30
0.0
 10
-22.112100000000002
 20
44.907499999999999
 30
0.0
 10
-22.112100000000002
 20
44.907499999999999
 30
0.0
 10
-21.9846
 20
44.805399999999999
 30
0.0
 10
-21.9008
 20
44.689300000000003
 30
0.0
 10
-21.860499999999998
 20
44.559399999999997
 30
0.0
 10
-21.860499999999998
 20
44.559399999999997
 30
0.0
 10
-21.819500000000001
 20
44.428899999999999
 30
0.0
 10
-21.822900000000001
 20
44.292999999999999
 30
0.0
 10
-21.8705
 20
44.152099999999997
 30
0.0
 10
-21.8705
 20
44.152099999999997
 30
0.0
 10
-21.9206
 20
44.002200000000002
 30
0.0
 10
-22.003399999999999
 20
43.893900000000002
 30
0.0
 10
-22.118300000000001
 20
43.827100000000002
 30
0.0
 10
-22.118300000000001
 20
43.827100000000002
 30
0.0
 10
-22.232900000000001
 20
43.759900000000002
 30
0.0
 10
-22.3689
 20
43.741999999999997
 30
0.0
 10
-22.526399999999999
 20
43.773299999999999
 30
0.0
  0
SPLINE
  5
6B
100
AcDbEntity
  8
Layer 1
100
AcDbSpline
210
0.0
220
0.0
230
1.0
 70
     1
 71
     3
 72
    36
 73
    32
 74
     0
 42
0.0000000001
 43
0.0000000001
 40
0.0
 40
0.0
 40
0.0
 40
0.0
 40
0.125
 40
0.125
 40
0.125
 40
0.125
 40
0.25
 40
0.25
 40
0.25
 40
0.25
 40
0.375
 40
0.375
 40
0.375
 40
0.375
 40
0.5
 40
0.5
 40
0.5
 40
0.5
 40
0.625
 40
0.625
 40
0.625
 40
0.625
 40
0.75
 40
0.75
 40
0.75
 40
0.75
 40
0.875
 40
0.875
 40
0.875
 40
0.875
 40
1.0
 40
1.0
 40
1.0
 40
1.0
 10
-23.0487
 20
45.019500000000001
 30
0.0
 10
-23.183399999999999
 20
45.064700000000002
 30
0.0
 10
-23.302900000000001
 20
45.064700000000002
 30
0.0
 10
-23.406199999999998
 20
45.018999999999998
 30
0.0
 10
-23.406199999999998
 20
45.018999999999998
 30
0.0
 10
-23.5093
 20
44.973799999999997
 30
0.0
 10
-23.5778
 20
44.900700000000001
 30
0.0
 10
-23.612100000000002
 20
44.799799999999998
 30
0.0
 10
-23.612100000000002
 20
44.799799999999998
 30
0.0
 10
-23.646899999999999
 20
44.695500000000003
 30
0.0
 10
-23.634499999999999
 20
44.5901
 30
0.0
 10
-23.575299999999999
 20
44.484000000000002
 30
0.0
 10
-23.575299999999999
 20
44.484000000000002
 30
0.0
 10
-23.515999999999998
 20
44.377899999999997
 30
0.0
 10
-23.418399999999998
 20
44.3018
 30
0.0
 10
-23.282599999999999
 20
44.256500000000003
 30
0.0
 10
-23.282599999999999
 20
44.256500000000003
 30
0.0
 10
-23.160499999999999
 20
44.215600000000002
 30
0.0
 10
-23.049499999999998
 20
44.2194
 30
0.0
 10
-22.9482
 20
44.267400000000002
 30
0.0
 10
-22.9482
 20
44.267400000000002
 30
0.0
 10
-22.847300000000001
 20
44.3155
 30
0.0
 10
-22.7789
 20
44.393300000000004
 30
0.0
 10
-22.742599999999999
 20
44.501399999999997
 30
0.0
 10
-22.742599999999999
 20
44.501399999999997
 30
0.0
 10
-22.706399999999999
 20
44.610300000000002
 30
0.0
 10
-22.714500000000001
 20
44.712400000000002
 30
0.0
 10
-22.767299999999999
 20
44.808100000000003
 30
0.0
 10
-22.767299999999999
 20
44.808100000000003
 30
0.0
 10
-22.82
 20
44.903799999999997
 30
0.0
 10
-22.913900000000002
 20
44.974299999999999
 30
0.0
 10
-23.0487
 20
45.019500000000001
 30
0.0
  0
SPLINE
  5
6C
100
AcDbEntity
  8
Layer 1
100
AcDbSpline
210
0.0
220
0.0
230
1.0
 70
     1
 71
     3
 72
    92
 73
    88
 74
     0
 42
0.0000000001
 43
0.0000000001
 40
0.0
 40
0.0
 40
0.0
 40
0.0
 40
0.0454545454545455
 40
0.0454545454545455
 40
0.0454545454545455
 40
0.0454545454545455
 40
0.0909090909090909
 40
0.0909090909090909
 40
0.0909090909090909
 40
0.0909090909090909
 40
0.1363636363636364
 40
0.1363636363636364
 40
0.1363636363636364
 40
0.1363636363636364
 40
0.1818181818181818
 40
0.1818181818181818
 40
0.1818181818181818
 40
0.1818181818181818
 40
0.2272727272727273
 40
0.2272727272727273
 40
0.2272727272727273
 40
0.2272727272727273
 40
0.2727272727272728
 40
0.2727272727272728
 40
0.2727272727272728
 40
0.2727272727272728
 40
0.3181818181818182
 40
0.3181818181818182
 40
0.3181818181818182
 40
0.3181818181818182
 40
0.3636363636363637
 40
0.3636363636363637
 40
0.3636363636363637
 40
0.3636363636363637
 40
0.4090909090909092
 40
0.4090909090909092
 40
0.4090909090909092
 40
0.4090909090909092
 40
0.4545454545454546
 40
0.4545454545454546
 40
0.4545454545454546
 40
0.4545454545454546
 40
0.5000000000000001
 40
0.5000000000000001
 40
0.5000000000000001
 40
0.5000000000000001
 40
0.5454545454545455
 40
0.5454545454545455
 40
0.5454545454545455
 40
0.5454545454545455
 40
0.5909090909090909
 40
0.5909090909090909
 40
0.5909090909090909
 40
0.5909090909090909
 40
0.6363636363636364
 40
0.6363636363636364
 40
0.6363636363636364
 40
0.6363636363636364
 40
0.6818181818181818
 40
0.6818181818181818
 40
0.6818181818181818
 40
0.6818181818181818
 40
0.7272727272727272
 40
0.7272727272727272
 40
0.7272727272727272
 40
0.7272727272727272
 40
0.7727272727272726
 40
0.7727272727272726
 40
0.7727272727272726
 40
0.7727272727272726
 40
0.818181818181818
 40
0.818181818181818
 40
0.818181818181818
 40
0.818181818181818
 40
0.8636363636363634
 40
0.8636363636363634
 40
0.8636363636363634
 40
0.8636363636363634
 40
0.9090909090909088
 40
0.9090909090909088
 40
0.9090909090909088
 40
0.9090909090909088
 40
0.9545454545454543
 40
0.9545454545454543
 40
0.9545454545454543
 40
0.9545454545454543
 40
1.0
 40
1.0
 40
1.0
 40
1.0
 10
-22.035399999999999
 20
45.264099999999999
 30
0.0
 10
-22.035399999999999
 20
45.264099999999999
 30
0.0
 10
-21.980399999999999
 20
45.497199999999999
 30
0.0
 10
-21.980399999999999
 20
45.497199999999999
 30
0.0
 10
-21.980399999999999
 20
45.497199999999999
 30
0.0
 10
-21.8675
 20
45.480699999999999
 30
0.0
 10
-21.778600000000001
 20
45.491599999999998
 30
0.0
 10
-21.712599999999998
 20
45.529499999999999
 30
0.0
 10
-21.712599999999998
 20
45.529499999999999
 30
0.0
 10
-21.646599999999999
 20
45.567300000000003
 30
0.0
 10
-21.599299999999999
 20
45.628700000000002
 30
0.0
 10
-21.570699999999999
 20
45.712800000000001
 30
0.0
 10
-21.570699999999999
 20
45.712800000000001
 30
0.0
 10
-21.546900000000001
 20
45.7851
 30
0.0
 10
-21.541899999999998
 20
45.854300000000002
 30
0.0
 10
-21.556699999999999
 20
45.919699999999999
 30
0.0
 10
-21.556699999999999
 20
45.919699999999999
 30
0.0
 10
-21.5715
 20
45.985100000000003
 30
0.0
 10
-21.600899999999999
 20
46.044499999999999
 30
0.0
 10
-21.644500000000001
 20
46.097900000000003
 30
0.0
 10
-21.644500000000001
 20
46.097900000000003
 30
0.0
 10
-21.688400000000001
 20
46.1511
 30
0.0
 10
-21.7531
 20
46.205500000000001
 30
0.0
 10
-21.839500000000001
 20
46.2605
 30
0.0
 10
-21.839500000000001
 20
46.2605
 30
0.0
 10
-21.9253
 20
46.315800000000003
 30
0.0
 10
-22.017299999999999
 20
46.359499999999997
 30
0.0
 10
-22.115100000000002
 20
46.392299999999999
 30
0.0
 10
-22.115100000000002
 20
46.392299999999999
 30
0.0
 10
-22.125299999999999
 20
46.395699999999998
 30
0.0
 10
-22.140799999999999
 20
46.400399999999998
 30
0.0
 10
-22.162500000000001
 20
46.406700000000001
 30
0.0
 10
-22.162500000000001
 20
46.406700000000001
 30
0.0
 10
-22.103000000000002
 20
46.334400000000002
 30
0.0
 10
-22.063800000000001
 20
46.25
 30
0.0
 10
-22.044499999999999
 20
46.153100000000002
 30
0.0
 10
-22.044499999999999
 20
46.153100000000002
 30
0.0
 10
-22.025099999999998
 20
46.055700000000002
 30
0.0
 10
-22.031600000000001
 20
45.959699999999998
 30
0.0
 10
-22.063500000000001
 20
45.864800000000002
 30
0.0
 10
-22.063500000000001
 20
45.864800000000002
 30
0.0
 10
-22.116399999999999
 20
45.706499999999998
 30
0.0
 10
-22.218900000000001
 20
45.591700000000003
 30
0.0
 10
-22.370699999999999
 20
45.520299999999999
 30
0.0
 10
-22.370699999999999
 20
45.520299999999999
 30
0.0
 10
-22.522400000000001
 20
45.449399999999997
 30
0.0
 10
-22.6922
 20
45.444899999999997
 30
0.0
 10
-22.880600000000001
 20
45.508299999999998
 30
0.0
 10
-22.880600000000001
 20
45.508299999999998
 30
0.0
 10
-23.0746
 20
45.573500000000003
 30
0.0
 10
-23.2119
 20
45.6828
 30
0.0
 10
-23.291799999999999
 20
45.837299999999999
 30
0.0
 10
-23.291799999999999
 20
45.837299999999999
 30
0.0
 10
-23.3721
 20
45.991500000000002
 30
0.0
 10
-23.383199999999999
 20
46.154699999999998
 30
0.0
 10
-23.325099999999999
 20
46.327100000000002
 30
0.0
 10
-23.325099999999999
 20
46.327100000000002
 30
0.0
 10
-23.2837
 20
46.451599999999999
 30
0.0
 10
-23.2117
 20
46.554400000000001
 30
0.0
 10
-23.110299999999999
 20
46.634799999999998
 30
0.0
 10
-23.110299999999999
 20
46.634799999999998
 30
0.0
 10
-23.008299999999998
 20
46.715800000000002
 30
0.0
 10
-22.886800000000001
 20
46.761800000000001
 30
0.0
 10
-22.744700000000002
 20
46.774000000000001
 30
0.0
 10
-22.744700000000002
 20
46.774000000000001
 30
0.0
 10
-22.602599999999999
 20
46.786099999999998
 30
0.0
 10
-22.414100000000001
 20
46.752499999999998
 30
0.0
 10
-22.178799999999999
 20
46.673900000000003
 30
0.0
 10
-22.178799999999999
 20
46.673900000000003
 30
0.0
 10
-21.934100000000001
 20
46.591500000000003
 30
0.0
 10
-21.748200000000001
 20
46.499899999999997
 30
0.0
 10
-21.621099999999998
 20
46.398299999999999
 30
0.0
 10
-21.621099999999998
 20
46.398299999999999
 30
0.0
 10
-21.493600000000001
 20
46.296199999999999
 30
0.0
 10
-21.409800000000001
 20
46.180100000000003
 30
0.0
 10
-21.369499999999999
 20
46.050199999999997
 30
0.0
 10
-21.369499999999999
 20
46.050199999999997
 30
0.0
 10
-21.328499999999998
 20
45.919699999999999
 30
0.0
 10
-21.331900000000001
 20
45.783799999999999
 30
0.0
 10
-21.3795
 20
45.642899999999997
 30
0.0
 10
-21.3795
 20
45.642899999999997
 30
0.0
 10
-21.429600000000001
 20
45.493000000000002
 30
0.0
 10
-21.5124
 20
45.384700000000002
 30
0.0
 10
-21.627300000000002
 20
45.317900000000002
 30
0.0
 10
-21.627300000000002
 20
45.317900000000002
 30
0.0
 10
-21.741900000000001
 20
45.250700000000002
 30
0.0
 10
-21.8779
 20
45.232799999999997
 30
0.0
 10
-22.035399999999999
 20
45.264099999999999
 30
0.0
  0
SPLINE
  5
6D
100
AcDbEntity
  8
Layer 1
100
AcDbSpline
210
0.0
220
0.0
230
1.0
 70
     1
 71
     3
 72
    36
 73
    32
 74
     0
 42
0.0000000001
 43
0.0000000001
 40
0.0
 40
0.0
 40
0.0
 40
0.0
 40
0.125
 40
0.125
 40
0.125
 40
0.125
 40
0.25
 40
0.25
 40
0.25
 40
0.25
 40
0.375
 40
0.375
 40
0.375
 40
0.375
 40
0.5
 40
0.5
 40
0.5
 40
0.5
 40
0.625
 40
0.625
 40
0.625
 40
0.625
 40
0.75
 40
0.75
 40
0.75
 40
0.75
 40
0.875
 40
0.875
 40
0.875
 40
0.875
 40
1.0
 40
1.0
 40
1.0
 40
1.0
 10
-22.557700000000001
 20
46.510300000000001
 30
0.0
 10
-22.692399999999999
 20
46.555500000000002
 30
0.0
 10
-22.811900000000001
 20
46.555500000000002
 30
0.0
 10
-22.915199999999999
 20
46.509799999999998
 30
0.0
 10
-22.915199999999999
 20
46.509799999999998
 30
0.0
 10
-23.0183
 20
46.464599999999997
 30
0.0
 10
-23.0868
 20
46.391500000000001
 30
0.0
 10
-23.121099999999998
 20
46.290599999999998
 30
0.0
 10
-23.121099999999998
 20
46.290599999999998
 30
0.0
 10
-23.155899999999999
 20
46.186300000000003
 30
0.0
 10
-23.1435
 20
46.0809
 30
0.0
 10
-23.084299999999999
 20
45.974800000000002
 30
0.0
 10
-23.084299999999999
 20
45.974800000000002
 30
0.0
 10
-23.024999999999999
 20
45.868699999999997
 30
0.0
 10
-22.927399999999999
 20
45.7926
 30
0.0
 10
-22.791599999999999
 20
45.747300000000003
 30
0.0
 10
-22.791599999999999
 20
45.747300000000003
 30
0.0
 10
-22.669499999999999
 20
45.706400000000002
 30
0.0
 10
-22.558499999999999
 20
45.7102
 30
0.0
 10
-22.4572
 20
45.758200000000002
 30
0.0
 10
-22.4572
 20
45.758200000000002
 30
0.0
 10
-22.356300000000001
 20
45.8063
 30
0.0
 10
-22.2879
 20
45.884099999999997
 30
0.0
 10
-22.2516
 20
45.992199999999997
 30
0.0
 10
-22.2516
 20
45.992199999999997
 30
0.0
 10
-22.215399999999999
 20
46.101100000000002
 30
0.0
 10
-22.223500000000001
 20
46.203200000000002
 30
0.0
 10
-22.276299999999999
 20
46.298900000000003
 30
0.0
 10
-22.276299999999999
 20
46.298900000000003
 30
0.0
 10
-22.329000000000001
 20
46.394599999999997
 30
0.0
 10
-22.422899999999998
 20
46.4651
 30
0.0
 10
-22.557700000000001
 20
46.510300000000001
 30
0.0
  0
SPLINE
  5
6E
100
AcDbEntity
  8
Layer 1
100
AcDbSpline
210
0.0
220
0.0
230
1.0
 70
     1
 71
     3
 72
    88
 73
    84
 74
     0
 42
0.0000000001
 43
0.0000000001
 40
0.0
 40
0.0
 40
0.0
 40
0.0
 40
0.0476190476190476
 40
0.0476190476190476
 40
0.0476190476190476
 40
0.0476190476190476
 40
0.0952380952380952
 40
0.0952380952380952
 40
0.0952380952380952
 40
0.0952380952380952
 40
0.1428571428571429
 40
0.1428571428571429
 40
0.1428571428571429
 40
0.1428571428571429
 40
0.1904761904761905
 40
0.1904761904761905
 40
0.1904761904761905
 40
0.1904761904761905
 40
0.2380952380952381
 40
0.2380952380952381
 40
0.2380952380952381
 40
0.2380952380952381
 40
0.2857142857142857
 40
0.2857142857142857
 40
0.2857142857142857
 40
0.2857142857142857
 40
0.3333333333333333
 40
0.3333333333333333
 40
0.3333333333333333
 40
0.3333333333333333
 40
0.3809523809523809
 40
0.3809523809523809
 40
0.3809523809523809
 40
0.3809523809523809
 40
0.4285714285714286
 40
0.4285714285714286
 40
0.4285714285714286
 40
0.4285714285714286
 40
0.4761904761904762
 40
0.4761904761904762
 40
0.4761904761904762
 40
0.4761904761904762
 40
0.5238095238095237
 40
0.5238095238095237
 40
0.5238095238095237
 40
0.5238095238095237
 40
0.5714285714285714
 40
0.5714285714285714
 40
0.5714285714285714
 40
0.5714285714285714
 40
0.6190476190476191
 40
0.6190476190476191
 40
0.6190476190476191
 40
0.6190476190476191
 40
0.6666666666666667
 40
0.6666666666666667
 40
0.6666666666666667
 40
0.6666666666666667
 40
0.7142857142857144
 40
0.7142857142857144
 40
0.7142857142857144
 40
0.7142857142857144
 40
0.7619047619047621
 40
0.7619047619047621
 40
0.7619047619047621
 40
0.7619047619047621
 40
0.8095238095238098
 40
0.8095238095238098
 40
0.8095238095238098
 40
0.8095238095238098
 40
0.8571428571428574
 40
0.8571428571428574
 40
0.8571428571428574
 40
0.8571428571428574
 40
0.9047619047619051
 40
0.9047619047619051
 40
0.9047619047619051
 40
0.9047619047619051
 40
0.9523809523809528
 40
0.9523809523809528
 40
0.9523809523809528
 40
0.9523809523809528
 40
1.0
 40
1.0
 40
1.0
 40
1.0
 10
-21.170100000000001
 20
47.979799999999997
 30
0.0
 10
-21.201599999999999
 20
47.989400000000003
 30
0.0
 10
-21.2255
 20
47.996499999999997
 30
0.0
 10
-21.2409
 20
48.001800000000003
 30
0.0
 10
-21.2409
 20
48.001800000000003
 30
0.0
 10
-21.333100000000002
 20
48.032800000000002
 30
0.0
 10
-21.4086
 20
48.072499999999998
 30
0.0
 10
-21.466699999999999
 20
48.121200000000002
 30
0.0
 10
-21.466699999999999
 20
48.121200000000002
 30
0.0
 10
-21.5108
 20
48.1571
 30
0.0
 10
-21.551600000000001
 20
48.205300000000001
 30
0.0
 10
-21.5885
 20
48.2652
 30
0.0
 10
-21.5885
 20
48.2652
 30
0.0
 10
-21.615500000000001
 20
48.308999999999997
 30
0.0
 10
-21.651
 20
48.384
 30
0.0
 10
-21.695699999999999
 20
48.4895
 30
0.0
 10
-21.695699999999999
 20
48.4895
 30
0.0
 10
-21.740400000000001
 20
48.595100000000002
 30
0.0
 10
-21.779699999999998
 20
48.666699999999999
 30
0.0
 10
-21.814299999999999
 20
48.705399999999997
 30
0.0
 10
-21.814299999999999
 20
48.705399999999997
 30
0.0
 10
-21.849
 20
48.744100000000003
 30
0.0
 10
-21.891200000000001
 20
48.771999999999998
 30
0.0
 10
-21.9419
 20
48.789099999999998
 30
0.0
 10
-21.9419
 20
48.789099999999998
 30
0.0
 10
-22.0336
 20
48.819600000000001
 30
0.0
 10
-22.125800000000002
 20
48.811100000000003
 30
0.0
 10
-22.218599999999999
 20
48.762599999999999
 30
0.0
 10
-22.218599999999999
 20
48.762599999999999
 30
0.0
 10
-22.311900000000001
 20
48.714500000000001
 30
0.0
 10
-22.375800000000002
 20
48.638500000000001
 30
0.0
 10
-22.410499999999999
 20
48.535200000000003
 30
0.0
 10
-22.410499999999999
 20
48.535200000000003
 30
0.0
 10
-22.444299999999998
 20
48.434699999999999
 30
0.0
 10
-22.440899999999999
 20
48.340600000000002
 30
0.0
 10
-22.4008
 20
48.252499999999998
 30
0.0
 10
-22.4008
 20
48.252499999999998
 30
0.0
 10
-22.360199999999999
 20
48.1648
 30
0.0
 10
-22.2774
 20
48.087800000000001
 30
0.0
 10
-22.1511
 20
48.022399999999998
 30
0.0
 10
-22.1511
 20
48.022399999999998
 30
0.0
 10
-22.1511
 20
48.022399999999998
 30
0.0
 10
-22.2607
 20
47.789999999999999
 30
0.0
 10
-22.2607
 20
47.789999999999999
 30
0.0
 10
-22.2607
 20
47.789999999999999
 30
0.0
 10
-22.431999999999999
 20
47.871600000000001
 30
0.0
 10
-22.546800000000001
 20
47.982199999999999
 30
0.0
 10
-22.606000000000002
 20
48.121600000000001
 30
0.0
 10
-22.606000000000002
 20
48.121600000000001
 30
0.0
 10
-22.6647
 20
48.261099999999999
 30
0.0
 10
-22.6645
 20
48.4191
 30
0.0
 10
-22.605399999999999
 20
48.595700000000001
 30
0.0
 10
-22.605399999999999
 20
48.595700000000001
 30
0.0
 10
-22.5426
 20
48.783200000000001
 30
0.0
 10
-22.441400000000002
 20
48.915300000000002
 30
0.0
 10
-22.302399999999999
 20
48.992400000000004
 30
0.0
 10
-22.302399999999999
 20
48.992400000000004
 30
0.0
 10
-22.162800000000001
 20
49.069899999999997
 30
0.0
 10
-22.0212
 20
49.084499999999998
 30
0.0
 10
-21.8765
 20
49.035899999999998
 30
0.0
 10
-21.8765
 20
49.035899999999998
 30
0.0
 10
-21.792899999999999
 20
49.007800000000003
 30
0.0
 10
-21.7225
 20
48.962299999999999
 30
0.0
 10
-21.664999999999999
 20
48.899500000000003
 30
0.0
 10
-21.664999999999999
 20
48.899500000000003
 30
0.0
 10
-21.607700000000001
 20
48.836799999999997
 30
0.0
 10
-21.547499999999999
 20
48.731699999999996
 30
0.0
 10
-21.4846
 20
48.5837
 30
0.0
 10
-21.4846
 20
48.5837
 30
0.0
 10
-21.442699999999999
 20
48.484299999999998
 30
0.0
 10
-21.409099999999999
 20
48.417299999999997
 30
0.0
 10
-21.384699999999999
 20
48.382899999999999
 30
0.0
 10
-21.384699999999999
 20
48.382899999999999
 30
0.0
 10
-21.360499999999998
 20
48.348500000000001
 30
0.0
 10
-21.329499999999999
 20
48.3187
 30
0.0
 10
-21.291599999999999
 20
48.293599999999998
 30
0.0
 10
-21.291599999999999
 20
48.293599999999998
 30
0.0
 10
-21.253599999999999
 20
48.268000000000001
 30
0.0
 10
-21.187799999999999
 20
48.238700000000001
 30
0.0
 10
-21.0944
 20
48.205800000000004
 30
0.0
 10
-21.0944
 20
48.205800000000004
 30
0.0
 10
-21.0944
 20
48.205800000000004
 30
0.0
 10
-21.170100000000001
 20
47.979799999999997
 30
0.0
 10
-21.170100000000001
 20
47.979799999999997
 30
0.0
  0
SPLINE
  5
6F
100
AcDbEntity
  8
Layer 1
100
AcDbSpline
210
0.0
220
0.0
230
1.0
 70
     1
 71
     3
 72
    20
 73
    16
 74
     0
 42
0.0000000001
 43
0.0000000001
 40
0.0
 40
0.0
 40
0.0
 40
0.0
 40
0.25
 40
0.25
 40
0.25
 40
0.25
 40
0.5
 40
0.5
 40
0.5
 40
0.5
 40
0.75
 40
0.75
 40
0.75
 40
0.75
 40
1.0
 40
1.0
 40
1.0
 40
1.0
 10
-20.703199999999999
 20
47.807200000000002
 30
0.0
 10
-20.703199999999999
 20
47.807200000000002
 30
0.0
 10
-20.9709
 20
47.896799999999999
 30
0.0
 10
-20.9709
 20
47.896799999999999
 30
0.0
 10
-20.9709
 20
47.896799999999999
 30
0.0
 10
-20.9709
 20
47.896799999999999
 30
0.0
 10
-20.881499999999999
 20
48.164900000000003
 30
0.0
 10
-20.881499999999999
 20
48.164900000000003
 30
0.0
 10
-20.881499999999999
 20
48.164900000000003
 30
0.0
 10
-20.881499999999999
 20
48.164900000000003
 30
0.0
 10
-20.613700000000001
 20
48.0749
 30
0.0
 10
-20.613700000000001
 20
48.0749
 30
0.0
 10
-20.613700000000001
 20
48.0749
 30
0.0
 10
-20.613700000000001
 20
48.0749
 30
0.0
 10
-20.703199999999999
 20
47.807200000000002
 30
0.0
 10
-20.703199999999999
 20
47.807200000000002
 30
0.0
  0
SPLINE
  5
70
100
AcDbEntity
  8
Layer 1
100
AcDbSpline
210
0.0
220
0.0
230
1.0
 70
     1
 71
     3
 72
    92
 73
    88
 74
     0
 42
0.0000000001
 43
0.0000000001
 40
0.0
 40
0.0
 40
0.0
 40
0.0
 40
0.0454545454545455
 40
0.0454545454545455
 40
0.0454545454545455
 40
0.0454545454545455
 40
0.0909090909090909
 40
0.0909090909090909
 40
0.0909090909090909
 40
0.0909090909090909
 40
0.1363636363636364
 40
0.1363636363636364
 40
0.1363636363636364
 40
0.1363636363636364
 40
0.1818181818181818
 40
0.1818181818181818
 40
0.1818181818181818
 40
0.1818181818181818
 40
0.2272727272727273
 40
0.2272727272727273
 40
0.2272727272727273
 40
0.2272727272727273
 40
0.2727272727272728
 40
0.2727272727272728
 40
0.2727272727272728
 40
0.2727272727272728
 40
0.3181818181818182
 40
0.3181818181818182
 40
0.3181818181818182
 40
0.3181818181818182
 40
0.3636363636363637
 40
0.3636363636363637
 40
0.3636363636363637
 40
0.3636363636363637
 40
0.4090909090909092
 40
0.4090909090909092
 40
0.4090909090909092
 40
0.4090909090909092
 40
0.4545454545454546
 40
0.4545454545454546
 40
0.4545454545454546
 40
0.4545454545454546
 40
0.5000000000000001
 40
0.5000000000000001
 40
0.5000000000000001
 40
0.5000000000000001
 40
0.5454545454545455
 40
0.5454545454545455
 40
0.5454545454545455
 40
0.5454545454545455
 40
0.5909090909090909
 40
0.5909090909090909
 40
0.5909090909090909
 40
0.5909090909090909
 40
0.6363636363636364
 40
0.6363636363636364
 40
0.6363636363636364
 40
0.6363636363636364
 40
0.6818181818181818
 40
0.6818181818181818
 40
0.6818181818181818
 40
0.6818181818181818
 40
0.7272727272727272
 40
0.7272727272727272
 40
0.7272727272727272
 40
0.7272727272727272
 40
0.7727272727272726
 40
0.7727272727272726
 40
0.7727272727272726
 40
0.7727272727272726
 40
0.818181818181818
 40
0.818181818181818
 40
0.818181818181818
 40
0.818181818181818
 40
0.8636363636363634
 40
0.8636363636363634
 40
0.8636363636363634
 40
0.8636363636363634
 40
0.9090909090909088
 40
0.9090909090909088
 40
0.9090909090909088
 40
0.9090909090909088
 40
0.9545454545454543
 40
0.9545454545454543
 40
0.9545454545454543
 40
0.9545454545454543
 40
1.0
 40
1.0
 40
1.0
 40
1.0
 10
22.151599999999998
 20
-4.1826999999999996
 30
0.0
 10
22.151599999999998
 20
-4.1826999999999996
 30
0.0
 10
22.210799999999999
 20
-4.4139999999999997
 30
0.0
 10
22.210799999999999
 20
-4.4139999999999997
 30
0.0
 10
22.210799999999999
 20
-4.4139999999999997
 30
0.0
 10
22.210799999999999
 20
-4.4139999999999997
 30
0.0
 10
20.918199999999999
 20
-4.7468000000000004
 30
0.0
 10
20.918199999999999
 20
-4.7468000000000004
 30
0.0
 10
20.918199999999999
 20
-4.7468000000000004
 30
0.0
 10
20.901499999999999
 20
-4.6894
 30
0.0
 10
20.8965
 20
-4.6315
 30
0.0
 10
20.902999999999999
 20
-4.5727000000000002
 30
0.0
 10
20.902999999999999
 20
-4.5727000000000002
 30
0.0
 10
20.9133
 20
-4.4763000000000002
 30
0.0
 10
20.9438
 20
-4.3758999999999997
 30
0.0
 10
20.9941
 20
-4.2716000000000003
 30
0.0
 10
20.9941
 20
-4.2716000000000003
 30
0.0
 10
21.0444
 20
-4.1679000000000004
 30
0.0
 10
21.123999999999999
 20
-4.0422000000000002
 30
0.0
 10
21.2319
 20
-3.8944999999999999
 30
0.0
 10
21.2319
 20
-3.8944999999999999
 30
0.0
 10
21.399899999999999
 20
-3.6657000000000002
 30
0.0
 10
21.507999999999999
 20
-3.4903
 30
0.0
 10
21.5565
 20
-3.3692000000000002
 30
0.0
 10
21.5565
 20
-3.3692000000000002
 30
0.0
 10
21.605
 20
-3.2484999999999999
 30
0.0
 10
21.6172
 20
-3.1423000000000001
 30
0.0
 10
21.594200000000001
 20
-3.0518000000000001
 30
0.0
 10
21.594200000000001
 20
-3.0518000000000001
 30
0.0
 10
21.569600000000001
 20
-2.9561999999999999
 30
0.0
 10
21.514900000000001
 20
-2.8849
 30
0.0
 10
21.43
 20
-2.8371
 30
0.0
 10
21.43
 20
-2.8371
 30
0.0
 10
21.344999999999999
 20
-2.7892000000000001
 30
0.0
 10
21.247699999999998
 20
-2.7793999999999999
 30
0.0
 10
21.138500000000001
 20
-2.8075999999999999
 30
0.0
 10
21.138500000000001
 20
-2.8075999999999999
 30
0.0
 10
21.022600000000001
 20
-2.8371
 30
0.0
 10
20.9391
 20
-2.8959999999999999
 30
0.0
 10
20.887899999999998
 20
-2.9832000000000001
 30
0.0
 10
20.887899999999998
 20
-2.9832000000000001
 30
0.0
 10
20.836300000000001
 20
-3.0706000000000002
 30
0.0
 10
20.825900000000001
 20
-3.1753
 30
0.0
 10
20.856400000000001
 20
-3.2982999999999998
 30
0.0
 10
20.856400000000001
 20
-3.2982999999999998
 30
0.0
 10
20.856400000000001
 20
-3.2982999999999998
 30
0.0
 10
20.603200000000001
 20
-3.3365999999999998
 30
0.0
 10
20.603200000000001
 20
-3.3365999999999998
 30
0.0
 10
20.603200000000001
 20
-3.3365999999999998
 30
0.0
 10
20.572500000000002
 20
-3.1482999999999999
 30
0.0
 10
20.600000000000001
 20
-2.9914000000000001
 30
0.0
 10
20.685700000000001
 20
-2.8666999999999998
 30
0.0
 10
20.685700000000001
 20
-2.8666999999999998
 30
0.0
 10
20.771000000000001
 20
-2.7414000000000001
 30
0.0
 10
20.906700000000001
 20
-2.6549999999999998
 30
0.0
 10
21.0928
 20
-2.6074000000000002
 30
0.0
 10
21.0928
 20
-2.6074000000000002
 30
0.0
 10
21.2803
 20
-2.5589
 30
0.0
 10
21.442399999999999
 20
-2.5728
 30
0.0
 10
21.578499999999998
 20
-2.6486999999999998
 30
0.0
 10
21.578499999999998
 20
-2.6486999999999998
 30
0.0
 10
21.714600000000001
 20
-2.7244999999999999
 30
0.0
 10
21.802499999999998
 20
-2.8395999999999999
 30
0.0
 10
21.842300000000002
 20
-2.9931999999999999
 30
0.0
 10
21.842300000000002
 20
-2.9931999999999999
 30
0.0
 10
21.8626
 20
-3.0718000000000001
 30
0.0
 10
21.866
 20
-3.1528
 30
0.0
 10
21.853899999999999
 20
-3.2364000000000002
 30
0.0
 10
21.853899999999999
 20
-3.2364000000000002
 30
0.0
 10
21.8413
 20
-3.3206000000000002
 30
0.0
 10
21.808399999999999
 20
-3.4135
 30
0.0
 10
21.755700000000001
 20
-3.5163000000000002
 30
0.0
 10
21.755700000000001
 20
-3.5163000000000002
 30
0.0
 10
21.702999999999999
 20
-3.6191
 30
0.0
 10
21.609300000000001
 20
-3.7658999999999998
 30
0.0
 10
21.474399999999999
 20
-3.9563000000000001
 30
0.0
 10
21.474399999999999
 20
-3.9563000000000001
 30
0.0
 10
21.3613
 20
-4.1143000000000001
 30
0.0
 10
21.2897
 20
-4.2202999999999999
 30
0.0
 10
21.259799999999998
 20
-4.2737999999999996
 30
0.0
 10
21.259799999999998
 20
-4.2737999999999996
 30
0.0
 10
21.23
 20
-4.3277000000000001
 30
0.0
 10
21.207699999999999
 20
-4.3792999999999997
 30
0.0
 10
21.1919
 20
-4.4301000000000004
 30
0.0
 10
21.1919
 20
-4.4301000000000004
 30
0.0
 10
21.1919
 20
-4.4301000000000004
 30
0.0
 10
22.151599999999998
 20
-4.1826999999999996
 30
0.0
 10
22.151599999999998
 20
-4.1826999999999996
 30
0.0
  0
SPLINE
  5
71
100
AcDbEntity
  8
Layer 1
100
AcDbSpline
210
0.0
220
0.0
230
1.0
 70
     1
 71
     3
 72
    60
 73
    56
 74
     0
 42
0.0000000001
 43
0.0000000001
 40
0.0
 40
0.0
 40
0.0
 40
0.0
 40
0.0714285714285714
 40
0.0714285714285714
 40
0.0714285714285714
 40
0.0714285714285714
 40
0.1428571428571429
 40
0.1428571428571429
 40
0.1428571428571429
 40
0.1428571428571429
 40
0.2142857142857143
 40
0.2142857142857143
 40
0.2142857142857143
 40
0.2142857142857143
 40
0.2857142857142857
 40
0.2857142857142857
 40
0.2857142857142857
 40
0.2857142857142857
 40
0.3571428571428571
 40
0.3571428571428571
 40
0.3571428571428571
 40
0.3571428571428571
 40
0.4285714285714285
 40
0.4285714285714285
 40
0.4285714285714285
 40
0.4285714285714285
 40
0.4999999999999999
 40
0.4999999999999999
 40
0.4999999999999999
 40
0.4999999999999999
 40
0.5714285714285713
 40
0.5714285714285713
 40
0.5714285714285713
 40
0.5714285714285713
 40
0.6428571428571427
 40
0.6428571428571427
 40
0.6428571428571427
 40
0.6428571428571427
 40
0.7142857142857141
 40
0.7142857142857141
 40
0.7142857142857141
 40
0.7142857142857141
 40
0.7857142857142855
 40
0.7857142857142855
 40
0.7857142857142855
 40
0.7857142857142855
 40
0.8571428571428569
 40
0.8571428571428569
 40
0.8571428571428569
 40
0.8571428571428569
 40
0.9285714285714283
 40
0.9285714285714283
 40
0.9285714285714283
 40
0.9285714285714283
 40
1.0
 40
1.0
 40
1.0
 40
1.0
 10
22.5533
 20
-4.3169000000000004
 30
0.0
 10
22.5533
 20
-4.3169000000000004
 30
0.0
 10
22.049299999999999
 20
-2.3611
 30
0.0
 10
22.049299999999999
 20
-2.3611
 30
0.0
 10
22.049299999999999
 20
-2.3611
 30
0.0
 10
22.049299999999999
 20
-2.3611
 30
0.0
 10
22.7835
 20
-2.1720999999999999
 30
0.0
 10
22.7835
 20
-2.1720999999999999
 30
0.0
 10
22.7835
 20
-2.1720999999999999
 30
0.0
 10
22.932700000000001
 20
-2.1332
 30
0.0
 10
23.0579
 20
-2.1225000000000001
 30
0.0
 10
23.158100000000001
 20
-2.1387999999999998
 30
0.0
 10
23.158100000000001
 20
-2.1387999999999998
 30
0.0
 10
23.258700000000001
 20
-2.1549
 30
0.0
 10
23.344999999999999
 20
-2.1976
 30
0.0
 10
23.4175
 20
-2.2669999999999999
 30
0.0
 10
23.4175
 20
-2.2669999999999999
 30
0.0
 10
23.489699999999999
 20
-2.3359999999999999
 30
0.0
 10
23.537299999999998
 20
-2.4152999999999998
 30
0.0
 10
23.5609
 20
-2.5051999999999999
 30
0.0
 10
23.5609
 20
-2.5051999999999999
 30
0.0
 10
23.5822
 20
-2.589
 30
0.0
 10
23.579999999999998
 20
-2.6732
 30
0.0
 10
23.553699999999999
 20
-2.7587999999999999
 30
0.0
 10
23.553699999999999
 20
-2.7587999999999999
 30
0.0
 10
23.527000000000001
 20
-2.8447
 30
0.0
 10
23.4739
 20
-2.9216000000000002
 30
0.0
 10
23.394100000000002
 20
-2.9908000000000001
 30
0.0
 10
23.394100000000002
 20
-2.9908000000000001
 30
0.0
 10
23.5212
 20
-2.9946999999999999
 30
0.0
 10
23.627800000000001
 20
-3.0304000000000002
 30
0.0
 10
23.712499999999999
 20
-3.0975999999999999
 30
0.0
 10
23.712499999999999
 20
-3.0975999999999999
 30
0.0
 10
23.797899999999998
 20
-3.1652999999999998
 30
0.0
 10
23.854800000000001
 20
-3.2557999999999998
 30
0.0
 10
23.884499999999999
 20
-3.3693
 30
0.0
 10
23.884499999999999
 20
-3.3693
 30
0.0
 10
23.908000000000001
 20
-3.4611000000000001
 30
0.0
 10
23.910499999999999
 20
-3.5514999999999999
 30
0.0
 10
23.892199999999999
 20
-3.6398000000000001
 30
0.0
 10
23.892199999999999
 20
-3.6398000000000001
 30
0.0
 10
23.873899999999999
 20
-3.7286000000000001
 30
0.0
 10
23.8416
 20
-3.8018000000000001
 30
0.0
 10
23.7957
 20
-3.8591000000000002
 30
0.0
 10
23.7957
 20
-3.8591000000000002
 30
0.0
 10
23.7498
 20
-3.9163000000000001
 30
0.0
 10
23.686599999999999
 20
-3.9672000000000001
 30
0.0
 10
23.606400000000001
 20
-4.0110999999999999
 30
0.0
 10
23.606400000000001
 20
-4.0110999999999999
 30
0.0
 10
23.526299999999999
 20
-4.0548999999999999
 30
0.0
 10
23.4236
 20
-4.093
 30
0.0
 10
23.299199999999999
 20
-4.1249000000000002
 30
0.0
 10
23.299199999999999
 20
-4.1249000000000002
 30
0.0
 10
23.299199999999999
 20
-4.1249000000000002
 30
0.0
 10
22.5533
 20
-4.3169000000000004
 30
0.0
 10
22.5533
 20
-4.3169000000000004
 30
0.0
  0
SPLINE
  5
72
100
AcDbEntity
  8
Layer 1
100
AcDbSpline
210
0.0
220
0.0
230
1.0
 70
     1
 71
     3
 72
    40
 73
    36
 74
     0
 42
0.0000000001
 43
0.0000000001
 40
0.0
 40
0.0
 40
0.0
 40
0.0
 40
0.1111111111111111
 40
0.1111111111111111
 40
0.1111111111111111
 40
0.1111111111111111
 40
0.2222222222222222
 40
0.2222222222222222
 40
0.2222222222222222
 40
0.2222222222222222
 40
0.3333333333333333
 40
0.3333333333333333
 40
0.3333333333333333
 40
0.3333333333333333
 40
0.4444444444444444
 40
0.4444444444444444
 40
0.4444444444444444
 40
0.4444444444444444
 40
0.5555555555555556
 40
0.5555555555555556
 40
0.5555555555555556
 40
0.5555555555555556
 40
0.6666666666666667
 40
0.6666666666666667
 40
0.6666666666666667
 40
0.6666666666666667
 40
0.7777777777777779
 40
0.7777777777777779
 40
0.7777777777777779
 40
0.7777777777777779
 40
0.8888888888888891
 40
0.8888888888888891
 40
0.8888888888888891
 40
0.8888888888888891
 40
1.0
 40
1.0
 40
1.0
 40
1.0
 10
22.520099999999999
 20
-3.1162999999999998
 30
0.0
 10
22.520099999999999
 20
-3.1162999999999998
 30
0.0
 10
22.943000000000001
 20
-3.0072000000000001
 30
0.0
 10
22.943000000000001
 20
-3.0072000000000001
 30
0.0
 10
22.943000000000001
 20
-3.0072000000000001
 30
0.0
 10
23.0578
 20
-2.9775999999999998
 30
0.0
 10
23.137899999999998
 20
-2.9487000000000001
 30
0.0
 10
23.184100000000001
 20
-2.9207000000000001
 30
0.0
 10
23.184100000000001
 20
-2.9207000000000001
 30
0.0
 10
23.245100000000001
 20
-2.8843000000000001
 30
0.0
 10
23.286200000000001
 20
-2.8393999999999999
 30
0.0
 10
23.307600000000001
 20
-2.7854000000000001
 30
0.0
 10
23.307600000000001
 20
-2.7854000000000001
 30
0.0
 10
23.3294
 20
-2.7313000000000001
 30
0.0
 10
23.331600000000002
 20
-2.6703000000000001
 30
0.0
 10
23.313600000000001
 20
-2.6015000000000001
 30
0.0
 10
23.313600000000001
 20
-2.6015000000000001
 30
0.0
 10
23.297000000000001
 20
-2.5365000000000002
 30
0.0
 10
23.2666
 20
-2.4836999999999998
 30
0.0
 10
23.222999999999999
 20
-2.4420999999999999
 30
0.0
 10
23.222999999999999
 20
-2.4420999999999999
 30
0.0
 10
23.178999999999998
 20
-2.4009
 30
0.0
 10
23.125900000000001
 20
-2.3786
 30
0.0
 10
23.063400000000001
 20
-2.375
 30
0.0
 10
23.063400000000001
 20
-2.375
 30
0.0
 10
23.000800000000002
 20
-2.3719000000000001
 30
0.0
 10
22.8992
 20
-2.3879000000000001
 30
0.0
 10
22.758800000000001
 20
-2.4243999999999999
 30
0.0
 10
22.758800000000001
 20
-2.4243999999999999
 30
0.0
 10
22.758800000000001
 20
-2.4243999999999999
 30
0.0
 10
22.367999999999999
 20
-2.5251999999999999
 30
0.0
 10
22.367999999999999
 20
-2.5251999999999999
 30
0.0
 10
22.367999999999999
 20
-2.5251999999999999
 30
0.0
 10
22.367999999999999
 20
-2.5251999999999999
 30
0.0
 10
22.520099999999999
 20
-3.1162999999999998
 30
0.0
 10
22.520099999999999
 20
-3.1162999999999998
 30
0.0
  0
SPLINE
  5
73
100
AcDbEntity
  8
Layer 1
100
AcDbSpline
210
0.0
220
0.0
230
1.0
 70
     1
 71
     3
 72
    44
 73
    40
 74
     0
 42
0.0000000001
 43
0.0000000001
 40
0.0
 40
0.0
 40
0.0
 40
0.0
 40
0.1
 40
0.1
 40
0.1
 40
0.1
 40
0.2
 40
0.2
 40
0.2
 40
0.2
 40
0.3
 40
0.3
 40
0.3
 40
0.3
 40
0.4
 40
0.4
 40
0.4
 40
0.4
 40
0.5
 40
0.5
 40
0.5
 40
0.5
 40
0.6
 40
0.6
 40
0.6
 40
0.6
 40
0.7
 40
0.7
 40
0.7
 40
0.7
 40
0.7999999999999999
 40
0.7999999999999999
 40
0.7999999999999999
 40
0.7999999999999999
 40
0.8999999999999999
 40
0.8999999999999999
 40
0.8999999999999999
 40
0.8999999999999999
 40
1.0
 40
1.0
 40
1.0
 40
1.0
 10
22.752700000000001
 20
-4.0194999999999999
 30
0.0
 10
22.752700000000001
 20
-4.0194999999999999
 30
0.0
 10
23.239599999999999
 20
-3.8942000000000001
 30
0.0
 10
23.239599999999999
 20
-3.8942000000000001
 30
0.0
 10
23.239599999999999
 20
-3.8942000000000001
 30
0.0
 10
23.323399999999999
 20
-3.8723999999999998
 30
0.0
 10
23.381399999999999
 20
-3.8544
 30
0.0
 10
23.413399999999999
 20
-3.8393999999999999
 30
0.0
 10
23.413399999999999
 20
-3.8393999999999999
 30
0.0
 10
23.470400000000001
 20
-3.8134000000000001
 30
0.0
 10
23.515699999999999
 20
-3.7825000000000002
 30
0.0
 10
23.549299999999999
 20
-3.7473999999999998
 30
0.0
 10
23.549299999999999
 20
-3.7473999999999998
 30
0.0
 10
23.582799999999999
 20
-3.7122000000000002
 30
0.0
 10
23.6066
 20
-3.6677
 30
0.0
 10
23.619900000000001
 20
-3.6132
 30
0.0
 10
23.619900000000001
 20
-3.6132
 30
0.0
 10
23.633400000000002
 20
-3.5590999999999999
 30
0.0
 10
23.632200000000001
 20
-3.5007999999999999
 30
0.0
 10
23.616099999999999
 20
-3.4386999999999999
 30
0.0
 10
23.616099999999999
 20
-3.4386999999999999
 30
0.0
 10
23.5975
 20
-3.3656999999999999
 30
0.0
 10
23.5625
 20
-3.3071999999999999
 30
0.0
 10
23.510899999999999
 20
-3.2627000000000002
 30
0.0
 10
23.510899999999999
 20
-3.2627000000000002
 30
0.0
 10
23.459900000000001
 20
-3.2187999999999999
 30
0.0
 10
23.398299999999999
 20
-3.194
 30
0.0
 10
23.3264
 20
-3.1894999999999998
 30
0.0
 10
23.3264
 20
-3.1894999999999998
 30
0.0
 10
23.2545
 20
-3.1848999999999998
 30
0.0
 10
23.156099999999999
 20
-3.1985999999999999
 30
0.0
 10
23.0319
 20
-3.2305000000000001
 30
0.0
 10
23.0319
 20
-3.2305000000000001
 30
0.0
 10
23.0319
 20
-3.2305000000000001
 30
0.0
 10
22.5793
 20
-3.347
 30
0.0
 10
22.5793
 20
-3.347
 30
0.0
 10
22.5793
 20
-3.347
 30
0.0
 10
22.5793
 20
-3.347
 30
0.0
 10
22.752700000000001
 20
-4.0194999999999999
 30
0.0
 10
22.752700000000001
 20
-4.0194999999999999
 30
0.0
  0
SPLINE
  5
74
100
AcDbEntity
  8
Layer 1
100
AcDbSpline
210
0.0
220
0.0
230
1.0
 70
     1
 71
     3
 72
    52
 73
    48
 74
     0
 42
0.0000000001
 43
0.0000000001
 40
0.0
 40
0.0
 40
0.0
 40
0.0
 40
0.0833333333333333
 40
0.0833333333333333
 40
0.0833333333333333
 40
0.0833333333333333
 40
0.1666666666666667
 40
0.1666666666666667
 40
0.1666666666666667
 40
0.1666666666666667
 40
0.25
 40
0.25
 40
0.25
 40
0.25
 40
0.3333333333333333
 40
0.3333333333333333
 40
0.3333333333333333
 40
0.3333333333333333
 40
0.4166666666666666
 40
0.4166666666666666
 40
0.4166666666666666
 40
0.4166666666666666
 40
0.4999999999999999
 40
0.4999999999999999
 40
0.4999999999999999
 40
0.4999999999999999
 40
0.5833333333333333
 40
0.5833333333333333
 40
0.5833333333333333
 40
0.5833333333333333
 40
0.6666666666666666
 40
0.6666666666666666
 40
0.6666666666666666
 40
0.6666666666666666
 40
0.75
 40
0.75
 40
0.75
 40
0.75
 40
0.8333333333333334
 40
0.8333333333333334
 40
0.8333333333333334
 40
0.8333333333333334
 40
0.9166666666666667
 40
0.9166666666666667
 40
0.9166666666666667
 40
0.9166666666666667
 40
1.0
 40
1.0
 40
1.0
 40
1.0
 10
24.0383
 20
-2.8955000000000002
 30
0.0
 10
23.979099999999999
 20
-2.6642000000000001
 30
0.0
 10
23.954599999999999
 20
-2.4723000000000002
 30
0.0
 10
23.966100000000001
 20
-2.319
 30
0.0
 10
23.966100000000001
 20
-2.319
 30
0.0
 10
23.9771
 20
-2.1657000000000002
 30
0.0
 10
24.02
 20
-2.0384000000000002
 30
0.0
 10
24.0943
 20
-1.9379999999999999
 30
0.0
 10
24.0943
 20
-1.9379999999999999
 30
0.0
 10
24.168199999999999
 20
-1.8371999999999999
 30
0.0
 10
24.276700000000002
 20
-1.7685999999999999
 30
0.0
 10
24.418900000000001
 20
-1.732
 30
0.0
 10
24.418900000000001
 20
-1.732
 30
0.0
 10
24.523900000000001
 20
-1.7048000000000001
 30
0.0
 10
24.621300000000002
 20
-1.7022999999999999
 30
0.0
 10
24.711400000000001
 20
-1.724
 30
0.0
 10
24.711400000000001
 20
-1.724
 30
0.0
 10
24.8017
 20
-1.746
 30
0.0
 10
24.882400000000001
 20
-1.7901
 30
0.0
 10
24.954499999999999
 20
-1.8563000000000001
 30
0.0
 10
24.954499999999999
 20
-1.8563000000000001
 30
0.0
 10
25.026700000000002
 20
-1.9229000000000001
 30
0.0
 10
25.092099999999999
 20
-2.0093000000000001
 30
0.0
 10
25.1509
 20
-2.1158999999999999
 30
0.0
 10
25.1509
 20
-2.1158999999999999
 30
0.0
 10
25.209700000000002
 20
-2.2229000000000001
 30
0.0
 10
25.264099999999999
 20
-2.3732000000000002
 30
0.0
 10
25.314
 20
-2.5672000000000001
 30
0.0
 10
25.314
 20
-2.5672000000000001
 30
0.0
 10
25.373200000000001
 20
-2.7965
 30
0.0
 10
25.397200000000002
 20
-2.9876999999999998
 30
0.0
 10
25.386700000000001
 20
-3.1408999999999998
 30
0.0
 10
25.386700000000001
 20
-3.1408999999999998
 30
0.0
 10
25.375599999999999
 20
-3.2942
 30
0.0
 10
25.333200000000001
 20
-3.4209999999999998
 30
0.0
 10
25.259399999999999
 20
-3.5223
 30
0.0
 10
25.259399999999999
 20
-3.5223
 30
0.0
 10
25.185099999999998
 20
-3.6236000000000002
 30
0.0
 10
25.076599999999999
 20
-3.6926999999999999
 30
0.0
 10
24.933499999999999
 20
-3.7292000000000001
 30
0.0
 10
24.933499999999999
 20
-3.7292000000000001
 30
0.0
 10
24.744599999999998
 20
-3.7778
 30
0.0
 10
24.5792
 20
-3.7483
 30
0.0
 10
24.436699999999998
 20
-3.641
 30
0.0
 10
24.436699999999998
 20
-3.641
 30
0.0
 10
24.266100000000002
 20
-3.5112999999999999
 30
0.0
 10
24.133099999999999
 20
-3.2627999999999999
 30
0.0
 10
24.0383
 20
-2.8955000000000002
 30
0.0
  0
SPLINE
  5
75
100
AcDbEntity
  8
Layer 1
100
AcDbSpline
210
0.0
220
0.0
230
1.0
 70
     1
 71
     3
 72
    36
 73
    32
 74
     0
 42
0.0000000001
 43
0.0000000001
 40
0.0
 40
0.0
 40
0.0
 40
0.0
 40
0.125
 40
0.125
 40
0.125
 40
0.125
 40
0.25
 40
0.25
 40
0.25
 40
0.25
 40
0.375
 40
0.375
 40
0.375
 40
0.375
 40
0.5
 40
0.5
 40
0.5
 40
0.5
 40
0.625
 40
0.625
 40
0.625
 40
0.625
 40
0.75
 40
0.75
 40
0.75
 40
0.75
 40
0.875
 40
0.875
 40
0.875
 40
0.875
 40
1.0
 40
1.0
 40
1.0
 40
1.0
 10
24.285499999999999
 20
-2.8321000000000001
 30
0.0
 10
24.368300000000001
 20
-3.1533000000000002
 30
0.0
 10
24.4605
 20
-3.3574000000000002
 30
0.0
 10
24.563199999999998
 20
-3.4439000000000002
 30
0.0
 10
24.563199999999998
 20
-3.4439000000000002
 30
0.0
 10
24.665800000000001
 20
-3.5308999999999999
 30
0.0
 10
24.772400000000001
 20
-3.5600000000000001
 30
0.0
 10
24.8826
 20
-3.5318999999999998
 30
0.0
 10
24.8826
 20
-3.5318999999999998
 30
0.0
 10
24.992799999999999
 20
-3.5036999999999998
 30
0.0
 10
25.0717
 20
-3.4264999999999999
 30
0.0
 10
25.119299999999999
 20
-3.3001
 30
0.0
 10
25.119299999999999
 20
-3.3001
 30
0.0
 10
25.167300000000001
 20
-3.1738
 30
0.0
 10
25.1496
 20
-2.9508000000000001
 30
0.0
 10
25.067299999999999
 20
-2.6305000000000001
 30
0.0
 10
25.067299999999999
 20
-2.6305000000000001
 30
0.0
 10
24.984500000000001
 20
-2.3085
 30
0.0
 10
24.8918
 20
-2.1042999999999998
 30
0.0
 10
24.789200000000001
 20
-2.0177999999999998
 30
0.0
 10
24.789200000000001
 20
-2.0177999999999998
 30
0.0
 10
24.686599999999999
 20
-1.9313
 30
0.0
 10
24.5794
 20
-1.9026000000000001
 30
0.0
 10
24.467400000000001
 20
-1.9313
 30
0.0
 10
24.467400000000001
 20
-1.9313
 30
0.0
 10
24.357099999999999
 20
-1.9599
 30
0.0
 10
24.281099999999999
 20
-2.0291999999999999
 30
0.0
 10
24.2393
 20
-2.1396000000000002
 30
0.0
 10
24.2393
 20
-2.1396000000000002
 30
0.0
 10
24.1874
 20
-2.2799999999999998
 30
0.0
 10
24.2028
 20
-2.5110000000000001
 30
0.0
 10
24.285499999999999
 20
-2.8321000000000001
 30
0.0
  0
SPLINE
  5
76
100
AcDbEntity
  8
Layer 1
100
AcDbSpline
210
0.0
220
0.0
230
1.0
 70
     1
 71
     3
 72
    52
 73
    48
 74
     0
 42
0.0000000001
 43
0.0000000001
 40
0.0
 40
0.0
 40
0.0
 40
0.0
 40
0.0833333333333333
 40
0.0833333333333333
 40
0.0833333333333333
 40
0.0833333333333333
 40
0.1666666666666667
 40
0.1666666666666667
 40
0.1666666666666667
 40
0.1666666666666667
 40
0.25
 40
0.25
 40
0.25
 40
0.25
 40
0.3333333333333333
 40
0.3333333333333333
 40
0.3333333333333333
 40
0.3333333333333333
 40
0.4166666666666666
 40
0.4166666666666666
 40
0.4166666666666666
 40
0.4166666666666666
 40
0.4999999999999999
 40
0.4999999999999999
 40
0.4999999999999999
 40
0.4999999999999999
 40
0.5833333333333333
 40
0.5833333333333333
 40
0.5833333333333333
 40
0.5833333333333333
 40
0.6666666666666666
 40
0.6666666666666666
 40
0.6666666666666666
 40
0.6666666666666666
 40
0.75
 40
0.75
 40
0.75
 40
0.75
 40
0.8333333333333334
 40
0.8333333333333334
 40
0.8333333333333334
 40
0.8333333333333334
 40
0.9166666666666667
 40
0.9166666666666667
 40
0.9166666666666667
 40
0.9166666666666667
 40
1.0
 40
1.0
 40
1.0
 40
1.0
 10
25.5562
 20
-2.4961000000000002
 30
0.0
 10
25.497
 20
-2.2648000000000001
 30
0.0
 10
25.4725
 20
-2.0729000000000002
 30
0.0
 10
25.484000000000002
 20
-1.9196
 30
0.0
 10
25.484000000000002
 20
-1.9196
 30
0.0
 10
25.495000000000001
 20
-1.7663
 30
0.0
 10
25.5379
 20
-1.639
 30
0.0
 10
25.612200000000001
 20
-1.5386
 30
0.0
 10
25.612200000000001
 20
-1.5386
 30
0.0
 10
25.6861
 20
-1.4378
 30
0.0
 10
25.794599999999999
 20
-1.3692
 30
0.0
 10
25.936800000000002
 20
-1.3326
 30
0.0
 10
25.936800000000002
 20
-1.3326
 30
0.0
 10
26.041799999999999
 20
-1.3053999999999999
 30
0.0
 10
26.139199999999999
 20
-1.3028999999999999
 30
0.0
 10
26.229299999999999
 20
-1.3246
 30
0.0
 10
26.229299999999999
 20
-1.3246
 30
0.0
 10
26.319600000000001
 20
-1.3466
 30
0.0
 10
26.400300000000001
 20
-1.3907
 30
0.0
 10
26.4724
 20
-1.4569000000000001
 30
0.0
 10
26.4724
 20
-1.4569000000000001
 30
0.0
 10
26.544599999999999
 20
-1.5235000000000001
 30
0.0
 10
26.609999999999999
 20
-1.6099000000000001
 30
0.0
 10
26.668800000000001
 20
-1.7164999999999999
 30
0.0
 10
26.668800000000001
 20
-1.7164999999999999
 30
0.0
 10
26.727599999999999
 20
-1.8234999999999999
 30
0.0
 10
26.782
 20
-1.9738
 30
0.0
 10
26.831900000000001
 20
-2.1678000000000002
 30
0.0
 10
26.831900000000001
 20
-2.1678000000000002
 30
0.0
 10
26.891100000000002
 20
-2.3971
 30
0.0
 10
26.915099999999999
 20
-2.5882999999999998
 30
0.0
 10
26.904599999999999
 20
-2.7414999999999998
 30
0.0
 10
26.904599999999999
 20
-2.7414999999999998
 30
0.0
 10
26.8935
 20
-2.8948
 30
0.0
 10
26.851099999999999
 20
-3.0215999999999998
 30
0.0
 10
26.7773
 20
-3.1229
 30
0.0
 10
26.7773
 20
-3.1229
 30
0.0
 10
26.702999999999999
 20
-3.2242000000000002
 30
0.0
 10
26.5945
 20
-3.2932999999999999
 30
0.0
 10
26.4514
 20
-3.3298000000000001
 30
0.0
 10
26.4514
 20
-3.3298000000000001
 30
0.0
 10
26.262499999999999
 20
-3.3784000000000001
 30
0.0
 10
26.097100000000001
 20
-3.3489
 30
0.0
 10
25.954599999999999
 20
-3.2416
 30
0.0
 10
25.954599999999999
 20
-3.2416
 30
0.0
 10
25.783999999999999
 20
-3.1118999999999999
 30
0.0
 10
25.651
 20
-2.8633999999999999
 30
0.0
 10
25.5562
 20
-2.4961000000000002
 30
0.0
  0
SPLINE
  5
77
100
AcDbEntity
  8
Layer 1
100
AcDbSpline
210
0.0
220
0.0
230
1.0
 70
     1
 71
     3
 72
    36
 73
    32
 74
     0
 42
0.0000000001
 43
0.0000000001
 40
0.0
 40
0.0
 40
0.0
 40
0.0
 40
0.125
 40
0.125
 40
0.125
 40
0.125
 40
0.25
 40
0.25
 40
0.25
 40
0.25
 40
0.375
 40
0.375
 40
0.375
 40
0.375
 40
0.5
 40
0.5
 40
0.5
 40
0.5
 40
0.625
 40
0.625
 40
0.625
 40
0.625
 40
0.75
 40
0.75
 40
0.75
 40
0.75
 40
0.875
 40
0.875
 40
0.875
 40
0.875
 40
1.0
 40
1.0
 40
1.0
 40
1.0
 10
25.8034
 20
-2.4327000000000001
 30
0.0
 10
25.886199999999999
 20
-2.7538999999999998
 30
0.0
 10
25.978400000000001
 20
-2.9580000000000002
 30
0.0
 10
26.081099999999999
 20
-3.0445000000000002
 30
0.0
 10
26.081099999999999
 20
-3.0445000000000002
 30
0.0
 10
26.183700000000002
 20
-3.1315
 30
0.0
 10
26.290299999999998
 20
-3.1606000000000001
 30
0.0
 10
26.400500000000001
 20
-3.1324999999999998
 30
0.0
 10
26.400500000000001
 20
-3.1324999999999998
 30
0.0
 10
26.5107
 20
-3.1042999999999998
 30
0.0
 10
26.589600000000001
 20
-3.0270999999999999
 30
0.0
 10
26.6372
 20
-2.9007000000000001
 30
0.0
 10
26.6372
 20
-2.9007000000000001
 30
0.0
 10
26.685199999999998
 20
-2.7744
 30
0.0
 10
26.6675
 20
-2.5514000000000001
 30
0.0
 10
26.5852
 20
-2.2311000000000001
 30
0.0
 10
26.5852
 20
-2.2311000000000001
 30
0.0
 10
26.502400000000002
 20
-1.9091
 30
0.0
 10
26.409700000000001
 20
-1.7049000000000001
 30
0.0
 10
26.307099999999998
 20
-1.6184000000000001
 30
0.0
 10
26.307099999999998
 20
-1.6184000000000001
 30
0.0
 10
26.204499999999999
 20
-1.5319
 30
0.0
 10
26.097300000000001
 20
-1.5032000000000001
 30
0.0
 10
25.985299999999999
 20
-1.5319
 30
0.0
 10
25.985299999999999
 20
-1.5319
 30
0.0
 10
25.875
 20
-1.5605
 30
0.0
 10
25.798999999999999
 20
-1.6297999999999999
 30
0.0
 10
25.757200000000001
 20
-1.7402
 30
0.0
 10
25.757200000000001
 20
-1.7402
 30
0.0
 10
25.705300000000001
 20
-1.8806
 30
0.0
 10
25.720700000000001
 20
-2.1116000000000001
 30
0.0
 10
25.8034
 20
-2.4327000000000001
 30
0.0
  0
SPLINE
  5
78
100
AcDbEntity
  8
Layer 1
100
AcDbSpline
210
0.0
220
0.0
230
1.0
 70
     1
 71
     3
 72
    92
 73
    88
 74
     0
 42
0.0000000001
 43
0.0000000001
 40
0.0
 40
0.0
 40
0.0
 40
0.0
 40
0.0454545454545455
 40
0.0454545454545455
 40
0.0454545454545455
 40
0.0454545454545455
 40
0.0909090909090909
 40
0.0909090909090909
 40
0.0909090909090909
 40
0.0909090909090909
 40
0.1363636363636364
 40
0.1363636363636364
 40
0.1363636363636364
 40
0.1363636363636364
 40
0.1818181818181818
 40
0.1818181818181818
 40
0.1818181818181818
 40
0.1818181818181818
 40
0.2272727272727273
 40
0.2272727272727273
 40
0.2272727272727273
 40
0.2272727272727273
 40
0.2727272727272728
 40
0.2727272727272728
 40
0.2727272727272728
 40
0.2727272727272728
 40
0.3181818181818182
 40
0.3181818181818182
 40
0.3181818181818182
 40
0.3181818181818182
 40
0.3636363636363637
 40
0.3636363636363637
 40
0.3636363636363637
 40
0.3636363636363637
 40
0.4090909090909092
 40
0.4090909090909092
 40
0.4090909090909092
 40
0.4090909090909092
 40
0.4545454545454546
 40
0.4545454545454546
 40
0.4545454545454546
 40
0.4545454545454546
 40
0.5000000000000001
 40
0.5000000000000001
 40
0.5000000000000001
 40
0.5000000000000001
 40
0.5454545454545455
 40
0.5454545454545455
 40
0.5454545454545455
 40
0.5454545454545455
 40
0.5909090909090909
 40
0.5909090909090909
 40
0.5909090909090909
 40
0.5909090909090909
 40
0.6363636363636364
 40
0.6363636363636364
 40
0.6363636363636364
 40
0.6363636363636364
 40
0.6818181818181818
 40
0.6818181818181818
 40
0.6818181818181818
 40
0.6818181818181818
 40
0.7272727272727272
 40
0.7272727272727272
 40
0.7272727272727272
 40
0.7272727272727272
 40
0.7727272727272726
 40
0.7727272727272726
 40
0.7727272727272726
 40
0.7727272727272726
 40
0.818181818181818
 40
0.818181818181818
 40
0.818181818181818
 40
0.818181818181818
 40
0.8636363636363634
 40
0.8636363636363634
 40
0.8636363636363634
 40
0.8636363636363634
 40
0.9090909090909088
 40
0.9090909090909088
 40
0.9090909090909088
 40
0.9090909090909088
 40
0.9545454545454543
 40
0.9545454545454543
 40
0.9545454545454543
 40
0.9545454545454543
 40
1.0
 40
1.0
 40
1.0
 40
1.0
 10
16.366
 20
11.050599999999999
 30
0.0
 10
16.366
 20
11.050599999999999
 30
0.0
 10
16.475200000000001
 20
10.838699999999999
 30
0.0
 10
16.475200000000001
 20
10.838699999999999
 30
0.0
 10
16.475200000000001
 20
10.838699999999999
 30
0.0
 10
16.475200000000001
 20
10.838699999999999
 30
0.0
 10
15.2881
 20
10.2273
 30
0.0
 10
15.2881
 20
10.2273
 30
0.0
 10
15.2881
 20
10.2273
 30
0.0
 10
15.2593
 20
10.2797
 30
0.0
 10
15.241199999999999
 20
10.3352
 30
0.0
 10
15.234999999999999
 20
10.393599999999999
 30
0.0
 10
15.234999999999999
 20
10.393599999999999
 30
0.0
 10
15.2234
 20
10.4902
 30
0.0
 10
15.231
 20
10.5945
 30
0.0
 10
15.257199999999999
 20
10.7072
 30
0.0
 10
15.257199999999999
 20
10.7072
 30
0.0
 10
15.283200000000001
 20
10.82
 30
0.0
 10
15.3325
 20
10.9603
 30
0.0
 10
15.4055
 20
11.127800000000001
 30
0.0
 10
15.4055
 20
11.127800000000001
 30
0.0
 10
15.518000000000001
 20
11.3887
 30
0.0
 10
15.5845
 20
11.583500000000001
 30
0.0
 10
15.6051
 20
11.712300000000001
 30
0.0
 10
15.6051
 20
11.712300000000001
 30
0.0
 10
15.6256
 20
11.840999999999999
 30
0.0
 10
15.6144
 20
11.946899999999999
 30
0.0
 10
15.571300000000001
 20
12.0304
 30
0.0
 10
15.571300000000001
 20
12.0304
 30
0.0
 10
15.5261
 20
12.117699999999999
 30
0.0
 10
15.4573
 20
12.1755
 30
0.0
 10
15.363899999999999
 20
12.2033
 30
0.0
 10
15.363899999999999
 20
12.2033
 30
0.0
 10
15.2705
 20
12.231299999999999
 30
0.0
 10
15.173500000000001
 20
12.218999999999999
 30
0.0
 10
15.073
 20
12.1675
 30
0.0
 10
15.073
 20
12.1675
 30
0.0
 10
14.966799999999999
 20
12.1127
 30
0.0
 10
14.898199999999999
 20
12.036799999999999
 30
0.0
 10
14.8675
 20
11.9406
 30
0.0
 10
14.8675
 20
11.9406
 30
0.0
 10
14.8363
 20
11.8438
 30
0.0
 10
14.8498
 20
11.7394
 30
0.0
 10
14.907
 20
11.626099999999999
 30
0.0
 10
14.907
 20
11.626099999999999
 30
0.0
 10
14.907
 20
11.626099999999999
 30
0.0
 10
14.6684
 20
11.5326
 30
0.0
 10
14.6684
 20
11.5326
 30
0.0
 10
14.6684
 20
11.5326
 30
0.0
 10
14.5966
 20
11.709899999999999
 30
0.0
 10
14.5886
 20
11.868399999999999
 30
0.0
 10
14.644399999999999
 20
12.0092
 30
0.0
 10
14.644399999999999
 20
12.0092
 30
0.0
 10
14.6999
 20
12.149900000000001
 30
0.0
 10
14.813000000000001
 20
12.2645
 30
0.0
 10
14.9838
 20
12.352399999999999
 30
0.0
 10
14.9838
 20
12.352399999999999
 30
0.0
 10
15.156000000000001
 20
12.4412
 30
0.0
 10
15.317
 20
12.463699999999999
 30
0.0
 10
15.466799999999999
 20
12.42
 30
0.0
 10
15.466799999999999
 20
12.42
 30
0.0
 10
15.6166
 20
12.3759
 30
0.0
 10
15.727600000000001
 20
12.2835
 30
0.0
 10
15.8005
 20
12.1424
 30
0.0
 10
15.8005
 20
12.1424
 30
0.0
 10
15.8377
 20
12.0703
 30
0.0
 10
15.859299999999999
 20
11.992000000000001
 30
0.0
 10
15.865399999999999
 20
11.9077
 30
0.0
 10
15.865399999999999
 20
11.9077
 30
0.0
 10
15.8719
 20
11.8231
 30
0.0
 10
15.861000000000001
 20
11.7248
 30
0.0
 10
15.832100000000001
 20
11.613
 30
0.0
 10
15.832100000000001
 20
11.613
 30
0.0
 10
15.803699999999999
 20
11.5008
 30
0.0
 10
15.744400000000001
 20
11.337400000000001
 30
0.0
 10
15.655200000000001
 20
11.121600000000001
 30
0.0
 10
15.655200000000001
 20
11.121600000000001
 30
0.0
 10
15.579800000000001
 20
10.942399999999999
 30
0.0
 10
15.533799999999999
 20
10.8232
 30
0.0
 10
15.5166
 20
10.7645
 30
0.0
 10
15.5166
 20
10.7645
 30
0.0
 10
15.4993
 20
10.705299999999999
 30
0.0
 10
15.489100000000001
 20
10.649800000000001
 30
0.0
 10
15.484999999999999
 20
10.597300000000001
 30
0.0
 10
15.484999999999999
 20
10.597300000000001
 30
0.0
 10
15.484999999999999
 20
10.597300000000001
 30
0.0
 10
16.366
 20
11.050599999999999
 30
0.0
 10
16.366
 20
11.050599999999999
 30
0.0
  0
SPLINE
  5
79
100
AcDbEntity
  8
Layer 1
100
AcDbSpline
210
0.0
220
0.0
230
1.0
 70
     1
 71
     3
 72
    60
 73
    56
 74
     0
 42
0.0000000001
 43
0.0000000001
 40
0.0
 40
0.0
 40
0.0
 40
0.0
 40
0.0714285714285714
 40
0.0714285714285714
 40
0.0714285714285714
 40
0.0714285714285714
 40
0.1428571428571429
 40
0.1428571428571429
 40
0.1428571428571429
 40
0.1428571428571429
 40
0.2142857142857143
 40
0.2142857142857143
 40
0.2142857142857143
 40
0.2142857142857143
 40
0.2857142857142857
 40
0.2857142857142857
 40
0.2857142857142857
 40
0.2857142857142857
 40
0.3571428571428571
 40
0.3571428571428571
 40
0.3571428571428571
 40
0.3571428571428571
 40
0.4285714285714285
 40
0.4285714285714285
 40
0.4285714285714285
 40
0.4285714285714285
 40
0.4999999999999999
 40
0.4999999999999999
 40
0.4999999999999999
 40
0.4999999999999999
 40
0.5714285714285713
 40
0.5714285714285713
 40
0.5714285714285713
 40
0.5714285714285713
 40
0.6428571428571427
 40
0.6428571428571427
 40
0.6428571428571427
 40
0.6428571428571427
 40
0.7142857142857141
 40
0.7142857142857141
 40
0.7142857142857141
 40
0.7142857142857141
 40
0.7857142857142855
 40
0.7857142857142855
 40
0.7857142857142855
 40
0.7857142857142855
 40
0.8571428571428569
 40
0.8571428571428569
 40
0.8571428571428569
 40
0.8571428571428569
 40
0.9285714285714283
 40
0.9285714285714283
 40
0.9285714285714283
 40
0.9285714285714283
 40
1.0
 40
1.0
 40
1.0
 40
1.0
 10
16.786000000000001
 20
11.011699999999999
 30
0.0
 10
16.786000000000001
 20
11.011699999999999
 30
0.0
 10
15.8611
 20
12.807499999999999
 30
0.0
 10
15.8611
 20
12.807499999999999
 30
0.0
 10
15.8611
 20
12.807499999999999
 30
0.0
 10
15.8611
 20
12.807499999999999
 30
0.0
 10
16.5349
 20
13.154400000000001
 30
0.0
 10
16.5349
 20
13.154400000000001
 30
0.0
 10
16.5349
 20
13.154400000000001
 30
0.0
 10
16.671700000000001
 20
13.225
 30
0.0
 10
16.791399999999999
 20
13.2638
 30
0.0
 10
16.893000000000001
 20
13.2698
 30
0.0
 10
16.893000000000001
 20
13.2698
 30
0.0
 10
16.994800000000001
 20
13.276199999999999
 30
0.0
 10
17.088200000000001
 20
13.254099999999999
 30
0.0
 10
17.173999999999999
 20
13.202299999999999
 30
0.0
 10
17.173999999999999
 20
13.202299999999999
 30
0.0
 10
17.260300000000001
 20
13.151
 30
0.0
 10
17.324200000000001
 20
13.084199999999999
 30
0.0
 10
17.366599999999998
 20
13.0017
 30
0.0
 10
17.366599999999998
 20
13.0017
 30
0.0
 10
17.406099999999999
 20
12.924799999999999
 30
0.0
 10
17.422599999999999
 20
12.841900000000001
 30
0.0
 10
17.415900000000001
 20
12.752599999999999
 30
0.0
 10
17.415900000000001
 20
12.752599999999999
 30
0.0
 10
17.409199999999998
 20
12.6637
 30
0.0
 10
17.374400000000001
 20
12.5764
 30
0.0
 10
17.311800000000002
 20
12.491199999999999
 30
0.0
 10
17.311800000000002
 20
12.491199999999999
 30
0.0
 10
17.437000000000001
 20
12.5154
 30
0.0
 10
17.548400000000001
 20
12.504300000000001
 30
0.0
 10
17.6465
 20
12.457599999999999
 30
0.0
 10
17.6465
 20
12.457599999999999
 30
0.0
 10
17.744
 20
12.411
 30
0.0
 10
17.8203
 20
12.3353
 30
0.0
 10
17.874199999999998
 20
12.230399999999999
 30
0.0
 10
17.874199999999998
 20
12.230399999999999
 30
0.0
 10
17.917400000000001
 20
12.1465
 30
0.0
 10
17.939900000000002
 20
12.0593
 30
0.0
 10
17.941800000000001
 20
11.9686
 30
0.0
 10
17.941800000000001
 20
11.9686
 30
0.0
 10
17.943100000000001
 20
11.878299999999999
 30
0.0
 10
17.928100000000001
 20
11.7997
 30
0.0
 10
17.8962
 20
11.733700000000001
 30
0.0
 10
17.8962
 20
11.733700000000001
 30
0.0
 10
17.863800000000001
 20
11.6675
 30
0.0
 10
17.813500000000001
 20
11.6043
 30
0.0
 10
17.744900000000001
 20
11.5436
 30
0.0
 10
17.744900000000001
 20
11.5436
 30
0.0
 10
17.6769
 20
11.482799999999999
 30
0.0
 10
17.5853
 20
11.4232
 30
0.0
 10
17.471
 20
11.364100000000001
 30
0.0
 10
17.471
 20
11.364100000000001
 30
0.0
 10
17.471
 20
11.364100000000001
 30
0.0
 10
16.786000000000001
 20
11.011699999999999
 30
0.0
 10
16.786000000000001
 20
11.011699999999999
 30
0.0
  0
SPLINE
  5
7A
100
AcDbEntity
  8
Layer 1
100
AcDbSpline
210
0.0
220
0.0
230
1.0
 70
     1
 71
     3
 72
    40
 73
    36
 74
     0
 42
0.0000000001
 43
0.0000000001
 40
0.0
 40
0.0
 40
0.0
 40
0.0
 40
0.1111111111111111
 40
0.1111111111111111
 40
0.1111111111111111
 40
0.1111111111111111
 40
0.2222222222222222
 40
0.2222222222222222
 40
0.2222222222222222
 40
0.2222222222222222
 40
0.3333333333333333
 40
0.3333333333333333
 40
0.3333333333333333
 40
0.3333333333333333
 40
0.4444444444444444
 40
0.4444444444444444
 40
0.4444444444444444
 40
0.4444444444444444
 40
0.5555555555555556
 40
0.5555555555555556
 40
0.5555555555555556
 40
0.5555555555555556
 40
0.6666666666666667
 40
0.6666666666666667
 40
0.6666666666666667
 40
0.6666666666666667
 40
0.7777777777777779
 40
0.7777777777777779
 40
0.7777777777777779
 40
0.7777777777777779
 40
0.8888888888888891
 40
0.8888888888888891
 40
0.8888888888888891
 40
0.8888888888888891
 40
1.0
 40
1.0
 40
1.0
 40
1.0
 10
16.487200000000001
 20
12.1753
 30
0.0
 10
16.487200000000001
 20
12.1753
 30
0.0
 10
16.875499999999999
 20
12.3752
 30
0.0
 10
16.875499999999999
 20
12.3752
 30
0.0
 10
16.875499999999999
 20
12.3752
 30
0.0
 10
16.981200000000001
 20
12.429600000000001
 30
0.0
 10
17.053000000000001
 20
12.475300000000001
 30
0.0
 10
17.091799999999999
 20
12.512700000000001
 30
0.0
 10
17.091799999999999
 20
12.512700000000001
 30
0.0
 10
17.142800000000001
 20
12.5618
 30
0.0
 10
17.172799999999999
 20
12.6153
 30
0.0
 10
17.182099999999998
 20
12.672599999999999
 30
0.0
 10
17.182099999999998
 20
12.672599999999999
 30
0.0
 10
17.191400000000002
 20
12.729900000000001
 30
0.0
 10
17.179500000000001
 20
12.790100000000001
 30
0.0
 10
17.147400000000001
 20
12.8529
 30
0.0
 10
17.147400000000001
 20
12.8529
 30
0.0
 10
17.116800000000001
 20
12.9129
 30
0.0
 10
17.075199999999999
 20
12.957800000000001
 30
0.0
 10
17.023099999999999
 20
12.988200000000001
 30
0.0
 10
17.023099999999999
 20
12.988200000000001
 30
0.0
 10
16.971599999999999
 20
13.0191
 30
0.0
 10
16.9147
 20
13.0288
 30
0.0
 10
16.853000000000002
 20
13.0184
 30
0.0
 10
16.853000000000002
 20
13.0184
 30
0.0
 10
16.791399999999999
 20
13.007999999999999
 30
0.0
 10
16.695599999999999
 20
12.968999999999999
 30
0.0
 10
16.5669
 20
12.9025
 30
0.0
 10
16.5669
 20
12.9025
 30
0.0
 10
16.5669
 20
12.9025
 30
0.0
 10
16.207699999999999
 20
12.7179
 30
0.0
 10
16.207699999999999
 20
12.7179
 30
0.0
 10
16.207699999999999
 20
12.7179
 30
0.0
 10
16.207699999999999
 20
12.7179
 30
0.0
 10
16.487200000000001
 20
12.1753
 30
0.0
 10
16.487200000000001
 20
12.1753
 30
0.0
  0
SPLINE
  5
7B
100
AcDbEntity
  8
Layer 1
100
AcDbSpline
210
0.0
220
0.0
230
1.0
 70
     1
 71
     3
 72
    44
 73
    40
 74
     0
 42
0.0000000001
 43
0.0000000001
 40
0.0
 40
0.0
 40
0.0
 40
0.0
 40
0.1
 40
0.1
 40
0.1
 40
0.1
 40
0.2
 40
0.2
 40
0.2
 40
0.2
 40
0.3
 40
0.3
 40
0.3
 40
0.3
 40
0.4
 40
0.4
 40
0.4
 40
0.4
 40
0.5
 40
0.5
 40
0.5
 40
0.5
 40
0.6
 40
0.6
 40
0.6
 40
0.6
 40
0.7
 40
0.7
 40
0.7
 40
0.7
 40
0.7999999999999999
 40
0.7999999999999999
 40
0.7999999999999999
 40
0.7999999999999999
 40
0.8999999999999999
 40
0.8999999999999999
 40
0.8999999999999999
 40
0.8999999999999999
 40
1.0
 40
1.0
 40
1.0
 40
1.0
 10
16.9145
 20
11.345800000000001
 30
0.0
 10
16.9145
 20
11.345800000000001
 30
0.0
 10
17.361799999999999
 20
11.576000000000001
 30
0.0
 10
17.361799999999999
 20
11.576000000000001
 30
0.0
 10
17.361799999999999
 20
11.576000000000001
 30
0.0
 10
17.438700000000001
 20
11.615500000000001
 30
0.0
 10
17.491099999999999
 20
11.6463
 30
0.0
 10
17.518999999999998
 20
11.668200000000001
 30
0.0
 10
17.518999999999998
 20
11.668200000000001
 30
0.0
 10
17.5686
 20
11.706
 30
0.0
 10
17.606000000000002
 20
11.745799999999999
 30
0.0
 10
17.6311
 20
11.7879
 30
0.0
 10
17.6311
 20
11.7879
 30
0.0
 10
17.655899999999999
 20
11.829599999999999
 30
0.0
 10
17.668900000000001
 20
11.878500000000001
 30
0.0
 10
17.670200000000001
 20
11.9344
 30
0.0
 10
17.670200000000001
 20
11.9344
 30
0.0
 10
17.671399999999998
 20
11.99
 30
0.0
 10
17.6572
 20
12.0465
 30
0.0
 10
17.6279
 20
12.104100000000001
 30
0.0
 10
17.6279
 20
12.104100000000001
 30
0.0
 10
17.593499999999999
 20
12.171099999999999
 30
0.0
 10
17.546199999999999
 20
12.2203
 30
0.0
 10
17.4863
 20
12.2522
 30
0.0
 10
17.4863
 20
12.2522
 30
0.0
 10
17.4267
 20
12.2835
 30
0.0
 10
17.3614
 20
12.293799999999999
 30
0.0
 10
17.2898
 20
12.282400000000001
 30
0.0
 10
17.2898
 20
12.282400000000001
 30
0.0
 10
17.218699999999998
 20
12.271100000000001
 30
0.0
 10
17.126300000000001
 20
12.235900000000001
 30
0.0
 10
17.011700000000001
 20
12.177300000000001
 30
0.0
 10
17.011700000000001
 20
12.177300000000001
 30
0.0
 10
17.011700000000001
 20
12.177300000000001
 30
0.0
 10
16.596399999999999
 20
11.9634
 30
0.0
 10
16.596399999999999
 20
11.9634
 30
0.0
 10
16.596399999999999
 20
11.9634
 30
0.0
 10
16.596399999999999
 20
11.9634
 30
0.0
 10
16.9145
 20
11.345800000000001
 30
0.0
 10
16.9145
 20
11.345800000000001
 30
0.0
  0
SPLINE
  5
7C
100
AcDbEntity
  8
Layer 1
100
AcDbSpline
210
0.0
220
0.0
230
1.0
 70
     1
 71
     3
 72
    52
 73
    48
 74
     0
 42
0.0000000001
 43
0.0000000001
 40
0.0
 40
0.0
 40
0.0
 40
0.0
 40
0.0833333333333333
 40
0.0833333333333333
 40
0.0833333333333333
 40
0.0833333333333333
 40
0.1666666666666667
 40
0.1666666666666667
 40
0.1666666666666667
 40
0.1666666666666667
 40
0.25
 40
0.25
 40
0.25
 40
0.25
 40
0.3333333333333333
 40
0.3333333333333333
 40
0.3333333333333333
 40
0.3333333333333333
 40
0.4166666666666666
 40
0.4166666666666666
 40
0.4166666666666666
 40
0.4166666666666666
 40
0.4999999999999999
 40
0.4999999999999999
 40
0.4999999999999999
 40
0.4999999999999999
 40
0.5833333333333333
 40
0.5833333333333333
 40
0.5833333333333333
 40
0.5833333333333333
 40
0.6666666666666666
 40
0.6666666666666666
 40
0.6666666666666666
 40
0.6666666666666666
 40
0.75
 40
0.75
 40
0.75
 40
0.75
 40
0.8333333333333334
 40
0.8333333333333334
 40
0.8333333333333334
 40
0.8333333333333334
 40
0.9166666666666667
 40
0.9166666666666667
 40
0.9166666666666667
 40
0.9166666666666667
 40
1.0
 40
1.0
 40
1.0
 40
1.0
 10
17.917400000000001
 20
12.7296
 30
0.0
 10
17.8081
 20
12.9419
 30
0.0
 10
17.742000000000001
 20
13.1244
 30
0.0
 10
17.718900000000001
 20
13.276400000000001
 30
0.0
 10
17.718900000000001
 20
13.276400000000001
 30
0.0
 10
17.695799999999998
 20
13.428000000000001
 30
0.0
 10
17.709299999999999
 20
13.5616
 30
0.0
 10
17.759399999999999
 20
13.6761
 30
0.0
 10
17.759399999999999
 20
13.6761
 30
0.0
 10
17.8094
 20
13.7905
 30
0.0
 10
17.899799999999999
 20
13.8817
 30
0.0
 10
18.0305
 20
13.9491
 30
0.0
 10
18.0305
 20
13.9491
 30
0.0
 10
18.126799999999999
 20
13.9983
 30
0.0
 10
18.221499999999999
 20
14.0228
 30
0.0
 10
18.3142
 20
14.0212
 30
0.0
 10
18.3142
 20
14.0212
 30
0.0
 10
18.4068
 20
14.020200000000001
 30
0.0
 10
18.4955
 20
13.9953
 30
0.0
 10
18.580400000000001
 20
13.946199999999999
 30
0.0
 10
18.580400000000001
 20
13.946199999999999
 30
0.0
 10
18.665700000000001
 20
13.8978
 30
0.0
 10
18.7486
 20
13.8277
 30
0.0
 10
18.8293
 20
13.7369
 30
0.0
 10
18.8293
 20
13.7369
 30
0.0
 10
18.910699999999999
 20
13.6456
 30
0.0
 10
18.9969
 20
13.510999999999999
 30
0.0
 10
19.0885
 20
13.3332
 30
0.0
 10
19.0885
 20
13.3332
 30
0.0
 10
19.197299999999998
 20
13.122199999999999
 30
0.0
 10
19.263000000000002
 20
12.9413
 30
0.0
 10
19.2865
 20
12.7897
 30
0.0
 10
19.2865
 20
12.7897
 30
0.0
 10
19.310099999999998
 20
12.637499999999999
 30
0.0
 10
19.296600000000002
 20
12.5046
 30
0.0
 10
19.2469
 20
12.389099999999999
 30
0.0
 10
19.2469
 20
12.389099999999999
 30
0.0
 10
19.197399999999998
 20
12.2742
 30
0.0
 10
19.1066
 20
12.183
 30
0.0
 10
18.9754
 20
12.1151
 30
0.0
 10
18.9754
 20
12.1151
 30
0.0
 10
18.802099999999999
 20
12.0259
 30
0.0
 10
18.6342
 20
12.017899999999999
 30
0.0
 10
18.471399999999999
 20
12.0913
 30
0.0
 10
18.471399999999999
 20
12.0913
 30
0.0
 10
18.2758
 20
12.179500000000001
 30
0.0
 10
18.0913
 20
12.3927
 30
0.0
 10
17.917400000000001
 20
12.7296
 30
0.0
  0
SPLINE
  5
7D
100
AcDbEntity
  8
Layer 1
100
AcDbSpline
210
0.0
220
0.0
230
1.0
 70
     1
 71
     3
 72
    36
 73
    32
 74
     0
 42
0.0000000001
 43
0.0000000001
 40
0.0
 40
0.0
 40
0.0
 40
0.0
 40
0.125
 40
0.125
 40
0.125
 40
0.125
 40
0.25
 40
0.25
 40
0.25
 40
0.25
 40
0.375
 40
0.375
 40
0.375
 40
0.375
 40
0.5
 40
0.5
 40
0.5
 40
0.5
 40
0.625
 40
0.625
 40
0.625
 40
0.625
 40
0.75
 40
0.75
 40
0.75
 40
0.75
 40
0.875
 40
0.875
 40
0.875
 40
0.875
 40
1.0
 40
1.0
 40
1.0
 40
1.0
 10
18.144300000000001
 20
12.8468
 30
0.0
 10
18.2959
 20
12.5519
 30
0.0
 10
18.431699999999999
 20
12.3733
 30
0.0
 10
18.550799999999999
 20
12.311400000000001
 30
0.0
 10
18.550799999999999
 20
12.311400000000001
 30
0.0
 10
18.670400000000001
 20
12.2491
 30
0.0
 10
18.7805
 20
12.244300000000001
 30
0.0
 10
18.881900000000002
 20
12.2963
 30
0.0
 10
18.881900000000002
 20
12.2963
 30
0.0
 10
18.982800000000001
 20
12.348800000000001
 30
0.0
 10
19.0427
 20
12.441599999999999
 30
0.0
 10
19.061399999999999
 20
12.575200000000001
 30
0.0
 10
19.061399999999999
 20
12.575200000000001
 30
0.0
 10
19.080100000000002
 20
12.708600000000001
 30
0.0
 10
19.0136
 20
12.922499999999999
 30
0.0
 10
18.861999999999998
 20
13.2165
 30
0.0
 10
18.861999999999998
 20
13.2165
 30
0.0
 10
18.709900000000001
 20
13.511799999999999
 30
0.0
 10
18.574100000000001
 20
13.6904
 30
0.0
 10
18.454999999999998
 20
13.7523
 30
0.0
 10
18.454999999999998
 20
13.7523
 30
0.0
 10
18.335899999999999
 20
13.813700000000001
 30
0.0
 10
18.225000000000001
 20
13.818099999999999
 30
0.0
 10
18.1221
 20
13.7651
 30
0.0
 10
18.1221
 20
13.7651
 30
0.0
 10
18.020700000000001
 20
13.713100000000001
 30
0.0
 10
17.9618
 20
13.6287
 30
0.0
 10
17.945599999999999
 20
13.511699999999999
 30
0.0
 10
17.945599999999999
 20
13.511699999999999
 30
0.0
 10
17.926300000000001
 20
13.363099999999999
 30
0.0
 10
17.9923
 20
13.1412
 30
0.0
 10
18.144300000000001
 20
12.8468
 30
0.0
  0
SPLINE
  5
7E
100
AcDbEntity
  8
Layer 1
100
AcDbSpline
210
0.0
220
0.0
230
1.0
 70
     1
 71
     3
 72
    52
 73
    48
 74
     0
 42
0.0000000001
 43
0.0000000001
 40
0.0
 40
0.0
 40
0.0
 40
0.0
 40
0.0833333333333333
 40
0.0833333333333333
 40
0.0833333333333333
 40
0.0833333333333333
 40
0.1666666666666667
 40
0.1666666666666667
 40
0.1666666666666667
 40
0.1666666666666667
 40
0.25
 40
0.25
 40
0.25
 40
0.25
 40
0.3333333333333333
 40
0.3333333333333333
 40
0.3333333333333333
 40
0.3333333333333333
 40
0.4166666666666666
 40
0.4166666666666666
 40
0.4166666666666666
 40
0.4166666666666666
 40
0.4999999999999999
 40
0.4999999999999999
 40
0.4999999999999999
 40
0.4999999999999999
 40
0.5833333333333333
 40
0.5833333333333333
 40
0.5833333333333333
 40
0.5833333333333333
 40
0.6666666666666666
 40
0.6666666666666666
 40
0.6666666666666666
 40
0.6666666666666666
 40
0.75
 40
0.75
 40
0.75
 40
0.75
 40
0.8333333333333334
 40
0.8333333333333334
 40
0.8333333333333334
 40
0.8333333333333334
 40
0.9166666666666667
 40
0.9166666666666667
 40
0.9166666666666667
 40
0.9166666666666667
 40
1.0
 40
1.0
 40
1.0
 40
1.0
 10
19.307600000000001
 20
13.4582
 30
0.0
 10
19.1983
 20
13.670500000000001
 30
0.0
 10
19.132200000000001
 20
13.853
 30
0.0
 10
19.109100000000002
 20
14.005000000000001
 30
0.0
 10
19.109100000000002
 20
14.005000000000001
 30
0.0
 10
19.085999999999999
 20
14.156599999999999
 30
0.0
 10
19.099499999999999
 20
14.2902
 30
0.0
 10
19.1496
 20
14.4047
 30
0.0
 10
19.1496
 20
14.4047
 30
0.0
 10
19.1996
 20
14.5191
 30
0.0
 10
19.289999999999999
 20
14.610300000000001
 30
0.0
 10
19.4207
 20
14.6777
 30
0.0
 10
19.4207
 20
14.6777
 30
0.0
 10
19.516999999999999
 20
14.726900000000001
 30
0.0
 10
19.611699999999999
 20
14.7514
 30
0.0
 10
19.7044
 20
14.7498
 30
0.0
 10
19.7044
 20
14.7498
 30
0.0
 10
19.797000000000001
 20
14.748799999999999
 30
0.0
 10
19.8857
 20
14.7239
 30
0.0
 10
19.970600000000001
 20
14.674799999999999
 30
0.0
 10
19.970600000000001
 20
14.674799999999999
 30
0.0
 10
20.055900000000001
 20
14.6264
 30
0.0
 10
20.1388
 20
14.5563
 30
0.0
 10
20.2195
 20
14.4655
 30
0.0
 10
20.2195
 20
14.4655
 30
0.0
 10
20.300899999999999
 20
14.3742
 30
0.0
 10
20.3871
 20
14.239599999999999
 30
0.0
 10
20.4787
 20
14.0618
 30
0.0
 10
20.4787
 20
14.0618
 30
0.0
 10
20.587499999999999
 20
13.8508
 30
0.0
 10
20.653199999999998
 20
13.6699
 30
0.0
 10
20.6767
 20
13.5183
 30
0.0
 10
20.6767
 20
13.5183
 30
0.0
 10
20.700299999999999
 20
13.366099999999999
 30
0.0
 10
20.686800000000002
 20
13.2332
 30
0.0
 10
20.6371
 20
13.117699999999999
 30
0.0
 10
20.6371
 20
13.117699999999999
 30
0.0
 10
20.587599999999998
 20
13.002800000000001
 30
0.0
 10
20.4968
 20
12.9116
 30
0.0
 10
20.365600000000001
 20
12.8437
 30
0.0
 10
20.365600000000001
 20
12.8437
 30
0.0
 10
20.192299999999999
 20
12.7545
 30
0.0
 10
20.0244
 20
12.746499999999999
 30
0.0
 10
19.861599999999999
 20
12.819900000000001
 30
0.0
 10
19.861599999999999
 20
12.819900000000001
 30
0.0
 10
19.666
 20
12.908099999999999
 30
0.0
 10
19.4815
 20
13.1213
 30
0.0
 10
19.307600000000001
 20
13.4582
 30
0.0
  0
SPLINE
  5
7F
100
AcDbEntity
  8
Layer 1
100
AcDbSpline
210
0.0
220
0.0
230
1.0
 70
     1
 71
     3
 72
    36
 73
    32
 74
     0
 42
0.0000000001
 43
0.0000000001
 40
0.0
 40
0.0
 40
0.0
 40
0.0
 40
0.125
 40
0.125
 40
0.125
 40
0.125
 40
0.25
 40
0.25
 40
0.25
 40
0.25
 40
0.375
 40
0.375
 40
0.375
 40
0.375
 40
0.5
 40
0.5
 40
0.5
 40
0.5
 40
0.625
 40
0.625
 40
0.625
 40
0.625
 40
0.75
 40
0.75
 40
0.75
 40
0.75
 40
0.875
 40
0.875
 40
0.875
 40
0.875
 40
1.0
 40
1.0
 40
1.0
 40
1.0
 10
19.534500000000001
 20
13.5754
 30
0.0
 10
19.6861
 20
13.2805
 30
0.0
 10
19.821899999999999
 20
13.101900000000001
 30
0.0
 10
19.940999999999999
 20
13.039999999999999
 30
0.0
 10
19.940999999999999
 20
13.039999999999999
 30
0.0
 10
20.060600000000001
 20
12.9777
 30
0.0
 10
20.1707
 20
12.972899999999999
 30
0.0
 10
20.272099999999998
 20
13.024900000000001
 30
0.0
 10
20.272099999999998
 20
13.024900000000001
 30
0.0
 10
20.373000000000001
 20
13.077400000000001
 30
0.0
 10
20.4329
 20
13.170199999999999
 30
0.0
 10
20.451599999999999
 20
13.303800000000001
 30
0.0
 10
20.451599999999999
 20
13.303800000000001
 30
0.0
 10
20.470300000000002
 20
13.437200000000001
 30
0.0
 10
20.4038
 20
13.6511
 30
0.0
 10
20.252199999999998
 20
13.9451
 30
0.0
 10
20.252199999999998
 20
13.9451
 30
0.0
 10
20.100100000000001
 20
14.240399999999999
 30
0.0
 10
19.964300000000001
 20
14.419
 30
0.0
 10
19.845199999999998
 20
14.4809
 30
0.0
 10
19.845199999999998
 20
14.4809
 30
0.0
 10
19.726099999999999
 20
14.542299999999999
 30
0.0
 10
19.615200000000002
 20
14.5467
 30
0.0
 10
19.5123
 20
14.4937
 30
0.0
 10
19.5123
 20
14.4937
 30
0.0
 10
19.410900000000002
 20
14.441700000000001
 30
0.0
 10
19.352
 20
14.3573
 30
0.0
 10
19.335799999999999
 20
14.2403
 30
0.0
 10
19.335799999999999
 20
14.2403
 30
0.0
 10
19.316500000000001
 20
14.091699999999999
 30
0.0
 10
19.3825
 20
13.8698
 30
0.0
 10
19.534500000000001
 20
13.5754
 30
0.0
  0
ENDSEC
  0
SECTION
  2
OBJECTS
  0
DICTIONARY
  5
19
100
AcDbDictionary
280
     0
281
     1
  3
ACAD_GROUP
350
1A
  3
ACAD_MLINESTYLE
350
1B
  3
ACAD_LAYOUT
350
1E
  3
ACAD_PLOTSETTINGS
350
22
  3
ACAD_PLOTSTYLENAME
350
1F
  3
ACAD_WIPEOUT_VARS
350
23
  3
ACAD_IMAGE_VARS
350
26
  3
ACAD_IMAGE_DICT
350
27
  0
DICTIONARY
  5
1A
102
{ACAD_REACTORS
330
19
102
}
100
AcDbDictionary
280
     0
281
     1
  0
DICTIONARY
  5
1B
102
{ACAD_REACTORS
330
19
102
}
100
AcDbDictionary
280
     0
281
     1
  3
Standard
350
1C
  0
MLINESTYLE
  5
1C
102
{ACAD_REACTORS
330
1B
102
}
100
AcDbMlineStyle
  2
Standard
 70
     0
  3

 62
     0
 51
90.0
 52
90.0
 71
     2
 49
0.5
 62
   256
  6
BYLAYER
 49
-0.5
 62
   256
  6
BYLAYER
  0
ACDBDICTIONARYWDFLT
  5
1F
102
{ACAD_REACTORS
330
19
102
}
100
AcDbDictionary
281
     1
  3
Normal
350
1D
100
AcDbDictionaryWithDefault
340
1D
  0
ACDBPLACEHOLDER
  5
1D
102
{ACAD_REACTORS
330
1F
102
}
  0
LAYOUT
  5
20
102
{ACAD_REACTORS
330
1E
102
}
100
AcDbPlotSettings
  1

  2

  4

  6

 40
0.0
 41
0.0
 42
0.0
 43
0.0
 44
0.0
 45
0.0
 46
0.0
 47
0.0
 48
0.0
 49
0.0
140
0.0
141
0.0
142
1.0
143
1.0
 70
  1024
 72
     0
 73
     0
 74
     0
  7

 75
     0
147
1.0
148
0.0
149
0.0
100
AcDbLayout
  1
Model
 70
     0
 71
     0
 10
0.0
 20
0.0
 11
0.0
 21
0.0
 12
0.0
 22
0.0
 32
0.0
 14
0.0
 24
0.0
 34
0.0
 15
0.0
 25
0.0
 35
0.0
146
0.0
 13
0.0
 23
0.0
 33
0.0
 16
0.0
 26
0.0
 36
0.0
 17
0.0
 27
0.0
 37
0.0
 76
     0
330
A
331
0
345
0
346
0
  0
LAYOUT
  5
21
102
{ACAD_REACTORS
330
1E
102
}
100
AcDbPlotSettings
  1

  2

  4

  6

 40
0.0
 41
0.0
 42
0.0
 43
0.0
 44
0.0
 45
0.0
 46
0.0
 47
0.0
 48
0.0
 49
0.0
140
0.0
141
0.0
142
1.0
143
1.0
 70
     0
 72
     0
 73
     0
 74
     0
  7

 75
     0
147
1.0
148
0.0
149
0.0
100
AcDbLayout
  1
Layout1
 70
     0
 71
     0
 10
0.0
 20
0.0
 11
0.0
 21
0.0
 12
0.0
 22
0.0
 32
0.0
 14
0.0
 24
0.0
 34
0.0
 15
0.0
 25
0.0
 35
0.0
146
0.0
 13
0.0
 23
0.0
 33
0.0
 16
0.0
 26
0.0
 36
0.0
 17
0.0
 27
0.0
 37
0.0
 76
     0
330
B
331
0
345
0
346
0
  0
DICTIONARY
  5
1E
102
{ACAD_REACTORS
330
19
102
}
100
AcDbDictionary
280
     0
281
     1
  3
Layout1
350
21
  3
Model
350
20
  0
DICTIONARY
  5
22
102
{ACAD_REACTORS
330
19
102
}
100
AcDbDictionary
280
     0
281
     1
  0
WIPEOUTVARIABLES
  5
23
100
AcDbWipeoutVariables
 70
     1
  0
RASTERVARIABLES
  5
26
102
{ACAD_REACTORS
330
19
102
}
100
AcDbRasterVariables
 90
        0
 70
     0
 71
     1
 72
     0
  0
DICTIONARY
  5
27
102
{ACAD_REACTORS
330
19
102
}
100
AcDbDictionary
280
     0
281
     1
  3
KKMKluk-teren_ACD_0.png
350
29
  0
IMAGEDEF
  5
29
102
{ACAD_REACTORS
330
27
330
28
102
}
100
AcDbRasterImageDef
 90
        0
  1
KKMKluk-teren_ACD_0.png
 10
156.104
 20
110.5958
 11
0.01
 21
0.01
280
     1
281
     1
  0
IMAGEDEF_REACTOR
  5
28
100
AcDbRasterImageDefReactor
 90
        2
330
25
  0
ENDSEC
  0
EOF
