  0
SECTION
  2
HEADER
  9
$ACADVER
  1
AC1015
  9
$ACADMAINTVER
 70
               6
  9
$DWGCODEPAGE
  3
ANSI_1252
  9
$INSBASE
 10
0.0
 20
0.0
 30
0.0
  9
$EXTMIN
 10
-300.0
 20
-63.591213086718334
 30
-2.0252266666666667
  9
$EXTMAX
 10
340.0
 20
69.0
 30
2.0252266666666667
  9
$LIMMIN
 10
0.0
 20
0.0
  9
$LIMMAX
 10
0.0
 20
0.0
  9
$ORTHOMODE
 70
               0
  9
$REGENMODE
 70
               1
  9
$FILLMODE
 70
               1
  9
$QTEXTMODE
 70
               0
  9
$MIRRTEXT
 70
               1
  9
$LTSCALE
 40
5.0800000000000001
  9
$ATTMODE
 70
               1
  9
$TEXTSIZE
 40
0.2
  9
$TRACEWID
 40
1.0
  9
$TEXTSTYLE
  7
Standard
  9
$CLAYER
  8
None
  9
$CELTYPE
  6
Continuous
  9
$CECOLOR
 62
             256
  9
$CELTSCALE
 40
1.0
  9
$DISPSILH
 70
               0
  9
$DIMSCALE
 40
1.0
  9
$DIMASZ
 40
0.18
  9
$DIMEXO
 40
0.0625
  9
$DIMDLI
 40
0.38
  9
$DIMRND
 40
0.0
  9
$DIMDLE
 40
0.0
  9
$DIMEXE
 40
0.18
  9
$DIMTP
 40
0.0
  9
$DIMTM
 40
0.0
  9
$DIMTXT
 40
0.18
  9
$DIMCEN
 40
0.09
  9
$DIMTSZ
 40
0.0
  9
$DIMTOL
 70
               0
  9
$DIMLIM
 70
               0
  9
$DIMTIH
 70
               1
  9
$DIMTOH
 70
               1
  9
$DIMSE1
 70
               0
  9
$DIMSE2
 70
               0
  9
$DIMTAD
 70
               0
  9
$DIMZIN
 70
               0
  9
$DIMBLK
  1

  9
$DIMASO
 70
               1
  9
$DIMSHO
 70
               1
  9
$DIMPOST
  1

  9
$DIMAPOST
  1

  9
$DIMALT
 70
               0
  9
$DIMALTD
 70
               2
  9
$DIMALTF
 40
25.399999999999999
  9
$DIMLFAC
 40
1.0
  9
$DIMTOFL
 70
               0
  9
$DIMTVP
 40
0.0
  9
$DIMTIX
 70
               0
  9
$DIMSOXD
 70
               0
  9
$DIMSAH
 70
               0
  9
$DIMBLK1
  1

  9
$DIMBLK2
  1

  9
$DIMSTYLE
  2
Standard
  9
$DIMCLRD
 70
               0
  9
$DIMCLRE
 70
               0
  9
$DIMCLRT
 70
               0
  9
$DIMTFAC
 40
1.0
  9
$DIMGAP
 40
0.09
  9
$DIMJUST
 70
               0
  9
$DIMSD1
 70
               0
  9
$DIMSD2
 70
               0
  9
$DIMTOLJ
 70
               1
  9
$DIMTZIN
 70
               0
  9
$DIMALTZ
 70
               0
  9
$DIMALTTZ
 70
               0
  9
$DIMUPT
 70
               0
  9
$DIMDEC
 70
               4
  9
$DIMTDEC
 70
               4
  9
$DIMALTU
 70
               2
  9
$DIMALTTD
 70
               2
  9
$DIMTXSTY
  7
Standard
  9
$DIMAUNIT
 70
               0
  9
$DIMADEC
 70
               0
  9
$DIMALTRND
 40
0.0
  9
$DIMAZIN
 70
               0
  9
$DIMDSEP
 70
               0
  9
$DIMATFIT
 70
               3
  9
$DIMFRAC
 70
               0
  9
$DIMLDRBLK
  1

  9
$DIMLUNIT
 70
               2
  9
$DIMLWD
 70
               0
  9
$DIMLWE
 70
               0
  9
$DIMTMOVE
 70
               0
  9
$LUNITS
 70
               2
  9
$LUPREC
 70
               4
  9
$SKETCHINC
 40
0.1
  9
$FILLETRAD
 40
0.0
  9
$AUNITS
 70
               0
  9
$AUPREC
 70
               0
  9
$MENU
  1
acad
  9
$ELEVATION
 40
0.0
  9
$PELEVATION
 40
0.0
  9
$THICKNESS
 40
0.0
  9
$LIMCHECK
 70
               0
  9
$CHAMFERA
 40
0.0
  9
$CHAMFERB
 40
0.0
  9
$CHAMFERC
 40
0.0
  9
$CHAMFERD
 40
0.0
  9
$SKPOLY
 70
               0
  9
$TDCREATE
 40
2454999.530138889
  9
$TDUCREATE
 40
0.000000000
  9
$TDUPDATE
 40
2454999.530138889
  9
$TDUUPDATE
 40
0.000000000
  9
$TDINDWG
 40
0.0000000000
  9
$TDUSRTIMER
 40
0.0000000000
  9
$USRTIMER
 70
               1
  9
$ANGBASE
 50
0.0
  9
$ANGDIR
 70
               0
  9
$PDMODE
 70
               1
  9
$PDSIZE
 40
-2.0
  9
$PLINEWID
 40
0.0
  9
$SPLFRAME
 70
               0
  9
$SPLINETYPE
 70
               6
  9
$SPLINESEGS
 70
               8
  9
$HANDSEED
  5
1E7
  9
$SURFTAB1
 70
               6
  9
$SURFTAB2
 70
               6
  9
$SURFTYPE
 70
               6
  9
$SURFU
 70
               6
  9
$SURFV
 70
               6
  9
$UCSBASE
  2

  9
$UCSNAME
  2

  9
$UCSORG
 10
0.0
 20
0.0
 30
0.0
  9
$UCSXDIR
 10
1.0
 20
0.0
 30
0.0
  9
$UCSYDIR
 10
0.0
 20
1.0
 30
0.0
  9
$UCSORTHOREF
  2

  9
$UCSORTHOVIEW
 70
               0
  9
$UCSORGTOP
 10
0.0
 20
0.0
 30
0.0
  9
$UCSORGBOTTOM
 10
0.0
 20
0.0
 30
0.0
  9
$UCSORGLEFT
 10
0.0
 20
0.0
 30
0.0
  9
$UCSORGRIGHT
 10
0.0
 20
0.0
 30
0.0
  9
$UCSORGFRONT
 10
0.0
 20
0.0
 30
0.0
  9
$UCSORGBACK
 10
0.0
 20
0.0
 30
0.0
  9
$PUCSBASE
  2

  9
$PUCSNAME
  2

  9
$PUCSORG
 10
0.0
 20
0.0
 30
0.0
  9
$PUCSXDIR
 10
1.0
 20
0.0
 30
0.0
  9
$PUCSYDIR
 10
0.0
 20
1.0
 30
0.0
  9
$PUCSORTHOREF
  2

  9
$PUCSORTHOVIEW
 70
               0
  9
$PUCSORGTOP
 10
0.0
 20
0.0
 30
0.0
  9
$PUCSORGBOTTOM
 10
0.0
 20
0.0
 30
0.0
  9
$PUCSORGLEFT
 10
0.0
 20
0.0
 30
0.0
  9
$PUCSORGRIGHT
 10
0.0
 20
0.0
 30
0.0
  9
$PUCSORGFRONT
 10
0.0
 20
0.0
 30
0.0
  9
$PUCSORGBACK
 10
0.0
 20
0.0
 30
0.0
  9
$USERI1
 70
               0
  9
$USERI2
 70
               0
  9
$USERI3
 70
               0
  9
$USERI4
 70
               0
  9
$USERI5
 70
               0
  9
$USERR1
 40
0.0
  9
$USERR2
 40
0.0
  9
$USERR3
 40
0.0
  9
$USERR4
 40
0.0
  9
$USERR5
 40
0.0
  9
$WORLDVIEW
 70
               1
  9
$SHADEDGE
 70
               3
  9
$SHADEDIF
 70
              70
  9
$TILEMODE
 70
               1
  9
$MAXACTVP
 70
              64
  9
$PINSBASE
 10
0.0
 20
0.0
 30
0.0
  9
$PLIMCHECK
 70
               0
  9
$PEXTMIN
 10
1.0000000000000000E+20
 20
1.0000000000000000E+20
 30
1.0000000000000000E+20
  9
$PEXTMAX
 10
-1.0000000000000000E+20
 20
-1.0000000000000000E+20
 30
-1.0000000000000000E+20
  9
$PLIMMIN
 10
0.0
 20
0.0
  9
$PLIMMAX
 10
12.0
 20
9.0
  9
$UNITMODE
 70
               0
  9
$VISRETAIN
 70
               0
  9
$PLINEGEN
 70
               1
  9
$PSLTSCALE
 70
               0
  9
$TREEDEPTH
 70
            3020
  9
$CMLSTYLE
  2
Standard
  9
$CMLJUST
 70
               0
  9
$CMLSCALE
 40
1.0
  9
$PROXYGRAPHICS
 70
               0
  9
$MEASUREMENT
 70
               1
  9
$CELWEIGHT
370
               0
  9
$ENDCAPS
280
               0
  9
$JOINSTYLE
280
               0
  9
$LWDISPLAY
290
               1
  9
$INSUNITS
 70
               5
  9
$HYPERLINKBASE
  1

  9
$STYLESHEET
  1

  9
$XEDIT
290
               1
  9
$CEPSNTYPE
380
               0
  9
$PSTYLEMODE
290
               1
  9
$FINGERPRINTGUID
  2

  9
$VERSIONGUID
  2

  9
$EXTNAMES
290
               1
  9
$PSVPSCALE
 40
0.0
  0
ENDSEC
  0
SECTION
  2
CLASSES
  0
CLASS
  1
LWPOLYLINE
  2
AcDbPolyline
  3
AutoCAD 2000
 90
        0
280
               0
281
               1
  0
CLASS
  1
IMAGE
  2
AcDbRasterImage
  3
ISM
 90
      127
280
               0
281
               1
  0
CLASS
  1
OLE2FRAME
  2
AcDbOle2Frame
  3
AutoCAD 2000
 90
        0
280
               0
281
               1
  0
CLASS
  1
HATCH
  2
AcDbHatch
  3
AutoCAD 2000
 90
        0
280
               0
281
               1
  0
CLASS
  1
DICTIONARYVAR
  2
AcDbDictionaryVar
  3
AutoCAD 2000
 90
        0
280
               0
281
               0
  0
CLASS
  1
RASTERVARIABLES
  2
AcDbRasterVariables
  3
ISM
 90
        0
280
               0
281
               0
  0
CLASS
  1
IMAGEDEF
  2
AcDbRasterImageDef
  3
ISM
 90
        0
280
               0
281
               0
  0
CLASS
  1
IMAGEDEF_REACTOR
  2
AcDbRasterImageDefReactor
  3
ISM
 90
        1
280
               0
281
               0
  0
CLASS
  1
IDBUFFER
  2
AcDbIdBuffer
  3
AutoCAD 2000
 90
        0
280
               0
281
               0
  0
CLASS
  1
SPATIAL_FILTER
  2
AcDbSpatialFilter
  3
AutoCAD 2000
 90
        0
280
               0
281
               0
  0
CLASS
  1
XRECORD
  2
AcDbXrecord
  3
AutoCAD 2000
 90
        0
280
               0
281
               0
  0
CLASS
  1
SORTENTSTABLE
  2
AcDbSortentsTable
  3
AutoCAD 2000
 90
        0
280
               0
281
               0
  0
CLASS
  1
LAYER_INDEX
  2
AcDbLayerIndex
  3
AutoCAD 2000
 90
        0
280
               0
281
               0
  0
CLASS
  1
SPATIAL_INDEX
  2
AcDbSpatialIndex
  3
AutoCAD 2000
 90
        0
280
               0
281
               0
  0
CLASS
  1
OBJECT_PTR
  2
CAseDLPNTableRecord
  3
"ASE-LPNTableRecord"
 90
        1
280
               0
281
               0
  0
CLASS
  1
LAYOUT
  2
AcDbLayout
  3
AutoCAD 2000
 90
        0
280
               0
281
               0
  0
CLASS
  1
PLOTSETTINGS
  2
AcDbPlotSettings
  3
AutoCAD 2000
 90
        0
280
               0
281
               0
  0
CLASS
  1
ACDBDICTIONARYWDFLT
  2
AcDbDictionaryWithDefault
  3
AutoCAD 2000
 90
        0
280
               0
281
               0
  0
CLASS
  1
ACDBPLACEHOLDER
  2
AcDbPlaceHolder
  3
AutoCAD 2000
 90
        0
280
               0
281
               0
  0
CLASS
  1
VBA_PROJECT
  2
AcDbVbaProject
  3
acadvba
 90
        0
280
               0
281
               0
  0
CLASS
  1
WIPEOUT
  2
AcDbWipeout
  3
WipeOut|AutoCAD Express Tool|expresstools@autodesk.com
 90
      127
280
               0
281
               1
  0
CLASS
  1
WIPEOUTVARIABLES
  2
AcDbWipeoutVariables
  3
WipeOut|AutoCAD Express Tool|expresstools@autodesk.com
 90
        0
280
               0
281
               0
  0
CLASS
  1
RTEXT
  2
RText
  3
RText|AutoCAD Express Tool|expresstools@autodesk.com
 90
        0
280
               0
281
               1
  0
CLASS
  1
ARCALIGNEDTEXT
  2
AcDbArcAlignedText
  3
ATEXT|AutoCAD Express Tool|expresstools@autodesk.com
 90
        0
280
               0
281
               1
  0
ENDSEC
  0
SECTION
  2
TABLES
  0
TABLE
  2
VPORT
  5
7
100
AcDbSymbolTable
 70
               1
  0
VPORT
  5
15
100
AcDbSymbolTableRecord
100
AcDbViewportTableRecord
  2
*ACTIVE
 70
               0
 10
0.0
 20
0.0
 11
1.0
 21
1.0
 12
20.0
 22
2.7043934566408367
 13
0.0
 23
0.0
 14
1.0
 24
1.0
 15
0.0
 25
0.0
 16
0.0
 26
0.0
 36
1.0
 17
0.0
 27
0.0
 37
0.0
 40
132.59121308671834
 41
0.688564
 42
50.0
 43
0.0
 44
0.0
 50
0.0
 51
0.0
 71
               0
 72
            2000
 73
               1
 74
               1
 75
               0
 76
               0
 77
               0
 78
               0
281
               0
 65
               0
110
0.0
120
0.0
130
0.0
111
1.0
121
0.0
131
0.0
112
0.0
122
1.0
132
0.0
345
0
346
0
 79
               0
146
0.0
  0
ENDTAB
  0
TABLE
  2
LTYPE
  5
4
100
AcDbSymbolTable
 70
              13
  0
LTYPE
  5
11
100
AcDbSymbolTableRecord
100
AcDbLinetypeTableRecord
  2
ByBlock
 70
              64
  3

 72
              65
 73
               0
 40
0.0
  0
LTYPE
  5
12
100
AcDbSymbolTableRecord
100
AcDbLinetypeTableRecord
  2
ByLayer
 70
              64
  3

 72
              65
 73
               0
 40
0.0
  0
LTYPE
  5
13
100
AcDbSymbolTableRecord
100
AcDbLinetypeTableRecord
  2
Continuous
 70
              64
  3
Solid line
 72
              65
 73
               0
 40
0.0
  0
LTYPE
  5
2C
100
AcDbSymbolTableRecord
100
AcDbLinetypeTableRecord
  2
STYLE_01
 70
               0
  3

 72
              65
 73
               2
 40
0.41664
 49
0.20828
 74
               0
 49
-0.20836
 74
               0
  0
LTYPE
  5
2D
100
AcDbSymbolTableRecord
100
AcDbLinetypeTableRecord
  2
STYLE_02
 70
               0
  3

 72
              65
 73
               2
 40
0.6944250000000001
 49
0.48607
 74
               0
 49
-0.2083550000000001
 74
               0
  0
LTYPE
  5
2E
100
AcDbSymbolTableRecord
100
AcDbLinetypeTableRecord
  2
STYLE_03
 70
               0
  3

 72
              65
 73
               2
 40
1.25
 49
1.0416400000000001
 74
               0
 49
-0.2083599999999999
 74
               0
  0
LTYPE
  5
2F
100
AcDbSymbolTableRecord
100
AcDbLinetypeTableRecord
  2
STYLE_04
 70
               0
  3

 72
              65
 73
               2
 40
1.5277099999999999
 49
1.3194249999999998
 74
               0
 49
-0.208285
 74
               0
  0
LTYPE
  5
30
100
AcDbSymbolTableRecord
100
AcDbLinetypeTableRecord
  2
STYLE_05
 70
               0
  3

 72
              65
 73
               2
 40
0.20828
 49
0.069425
 74
               0
 49
-0.138855
 74
               0
  0
LTYPE
  5
31
100
AcDbSymbolTableRecord
100
AcDbLinetypeTableRecord
  2
STYLE_06
 70
               0
  3

 72
              65
 73
               4
 40
1.0416400000000001
 49
0.625
 74
               0
 49
-0.20828
 74
               0
 49
0.06943
 74
               0
 49
-0.13893
 74
               0
  0
LTYPE
  5
32
100
AcDbSymbolTableRecord
100
AcDbLinetypeTableRecord
  2
STYLE_07
 70
               0
  3

 72
              65
 73
               6
 40
1.875
 49
0.625
 74
               0
 49
-0.20828
 74
               0
 49
0.6250000000000001
 74
               0
 49
-0.2083599999999999
 74
               0
 49
0.06943
 74
               0
 49
-0.1389299999999999
 74
               0
  0
LTYPE
  5
33
100
AcDbSymbolTableRecord
100
AcDbLinetypeTableRecord
  2
STYLE_08
 70
               0
  3

 72
              65
 73
               6
 40
1.25
 49
0.625
 74
               0
 49
-0.20828
 74
               0
 49
0.06943
 74
               0
 49
-0.13893
 74
               0
 49
0.0694299999999999
 74
               0
 49
-0.13893
 74
               0
  0
LTYPE
  5
34
100
AcDbSymbolTableRecord
100
AcDbLinetypeTableRecord
  2
STYLE_09
 70
               0
  3

 72
              65
 73
               4
 40
5.0
 49
3.75
 74
               0
 49
-0.2777849999999998
 74
               0
 49
0.6944300000000003
 74
               0
 49
-0.2777849999999998
 74
               0
  0
LTYPE
  5
35
100
AcDbSymbolTableRecord
100
AcDbLinetypeTableRecord
  2
STYLE_10
 70
               0
  3

 72
              65
 73
               6
 40
5.9375
 49
3.75
 74
               0
 49
-0.2777849999999998
 74
               0
 49
0.6944300000000003
 74
               0
 49
-0.2777849999999998
 74
               0
 49
0.625
 74
               0
 49
-0.3125
 74
               0
  0
ENDTAB
  0
TABLE
  2
LAYER
  5
2
100
AcDbSymbolTable
 70
              14
  0
LAYER
  5
14
100
AcDbSymbolTableRecord
100
AcDbLayerTableRecord
  2
0
 70
               0
 62
               7
  6
Continuous
290
               1
370
              -3
390
1D
  0
LAYER
  5
36
100
AcDbSymbolTableRecord
100
AcDbLayerTableRecord
  2
None
 70
               0
 62
               7
  6
Continuous
290
               1
370
               5
390
1D
  0
LAYER
  5
37
100
AcDbSymbolTableRecord
100
AcDbLayerTableRecord
  2
Modules
 70
               0
 62
              45
  6
Continuous
290
               1
370
              50
390
1D
  0
LAYER
  5
38
100
AcDbSymbolTableRecord
100
AcDbLayerTableRecord
  2
Tracks
 70
               0
 62
              47
  6
Continuous
290
               1
370
             100
390
1D
  0
LAYER
  5
39
100
AcDbSymbolTableRecord
100
AcDbLayerTableRecord
  2
Buildings
 70
               0
 62
               7
  6
Continuous
290
               1
370
               5
390
1D
  0
LAYER
  5
3A
100
AcDbSymbolTableRecord
100
AcDbLayerTableRecord
  2
Platforms
 70
               0
 62
               7
  6
Continuous
290
               1
370
               5
390
1D
  0
LAYER
  5
3B
100
AcDbSymbolTableRecord
100
AcDbLayerTableRecord
  2
Infrastructure
 70
               0
 62
              43
  6
Continuous
290
               1
370
               5
390
1D
  0
LAYER
  5
3C
100
AcDbSymbolTableRecord
100
AcDbLayerTableRecord
  2
Planting
 70
               0
 62
              94
  6
Continuous
290
               1
370
               5
390
1D
  0
LAYER
  5
3D
100
AcDbSymbolTableRecord
100
AcDbLayerTableRecord
  2
Tracks_v1
 70
               0
 62
              47
  6
Continuous
290
               1
370
             100
390
1D
  0
LAYER
  5
3E
100
AcDbSymbolTableRecord
100
AcDbLayerTableRecord
  2
Signals
 70
               0
 62
               7
  6
Continuous
290
               1
370
               5
390
1D
  0
LAYER
  5
3F
100
AcDbSymbolTableRecord
100
AcDbLayerTableRecord
  2
Lables-Signals & Tracks
 70
               0
 62
               5
  6
Continuous
290
               1
370
               5
390
1D
  0
LAYER
  5
40
100
AcDbSymbolTableRecord
100
AcDbLayerTableRecord
  2
Lables
 70
               0
 62
               5
  6
Continuous
290
               1
370
               5
390
1D
  0
LAYER
  5
41
100
AcDbSymbolTableRecord
100
AcDbLayerTableRecord
  2
Lables-Infrastructure
 70
               0
 62
             250
  6
Continuous
290
               1
370
               5
390
1D
  0
LAYER
  5
42
100
AcDbSymbolTableRecord
100
AcDbLayerTableRecord
  2
Lables-Other
 70
               0
 62
               5
  6
Continuous
290
               1
370
               5
390
1D
  0
ENDTAB
  0
TABLE
  2
STYLE
  5
3
100
AcDbSymbolTable
 70
               3
  0
STYLE
  5
17
100
AcDbSymbolTableRecord
100
AcDbTextStyleTableRecord
  2
Standard
 70
               0
 40
0.0
 41
1.0
 50
0.0
 71
               0
 42
0.0
  3
txt
  4

  0
STYLE
  5
2A
100
AcDbSymbolTableRecord
100
AcDbTextStyleTableRecord
  2
Arial
 70
               0
 40
0.0
 41
1.0
 50
0.0
 71
               0
 42
0.0
  3
Arial
  4

1001
ACAD
1000
Arial
1071
        0
  0
STYLE
  5
2B
100
AcDbSymbolTableRecord
100
AcDbTextStyleTableRecord
  2
Arial (italic)
 70
               0
 40
0.0
 41
1.0
 50
0.0
 71
               0
 42
0.0
  3
Arial
  4

1001
ACAD
1000
Arial
1071
 16777216
  0
ENDTAB
  0
TABLE
  2
VIEW
  5
5
100
AcDbSymbolTable
 70
               0
  0
ENDTAB
  0
TABLE
  2
UCS
  5
6
100
AcDbSymbolTable
 70
               0
  0
ENDTAB
  0
TABLE
  2
APPID
  5
8
100
AcDbSymbolTable
 70
               1
  0
APPID
  5
16
100
AcDbSymbolTableRecord
100
AcDbRegAppTableRecord
  2
ACAD
 70
               0
  0
ENDTAB
  0
TABLE
  2
DIMSTYLE
  5
9
100
AcDbSymbolTable
 70
               1
100
AcDbDimStyleTable
 71
               0
  0
DIMSTYLE
105
18
100
AcDbSymbolTableRecord
100
AcDbDimStyleTableRecord
  2
Standard
 70
               0
  3

  4

 40
1.0
 41
0.18
 42
0.0625
 43
0.38
 44
0.18
 45
0.0
 46
0.0
 47
0.0
 48
0.0
 71
               0
 72
               0
 73
               1
 74
               1
 75
               0
 76
               0
 77
               0
 78
               0
 79
               0
140
0.18
141
0.09
142
0.0
143
25.399999999999999
144
1.0
145
0.0
146
1.0
147
0.09
148
0.0
170
               0
171
               2
172
               0
173
               0
174
               0
175
               0
176
               0
177
               0
178
               0
179
               0
271
               4
272
               4
273
               2
274
               2
275
               0
276
               0
277
               2
278
              46
279
               0
280
               0
281
               0
282
               0
283
               1
284
               0
285
               0
286
               0
288
               0
289
               3
340
17
341
0
342
0
343
0
344
0
371
              -2
372
              -2
  0
ENDTAB
  0
TABLE
  2
BLOCK_RECORD
  5
1
100
AcDbSymbolTable
 70
               6
  0
BLOCK_RECORD
  5
A
100
AcDbSymbolTableRecord
100
AcDbBlockTableRecord
  2
*MODEL_SPACE
340
20
  0
BLOCK_RECORD
  5
B
100
AcDbSymbolTableRecord
100
AcDbBlockTableRecord
  2
*PAPER_SPACE
340
21
  0
BLOCK_RECORD
  5
24
100
AcDbSymbolTableRecord
100
AcDbBlockTableRecord
  2
Group
340
0
102
{BLKREFS
331
1A3
102
}
  0
BLOCK_RECORD
  5
25
100
AcDbSymbolTableRecord
100
AcDbBlockTableRecord
  2
Group-1
340
0
102
{BLKREFS
331
1A4
102
}
  0
BLOCK_RECORD
  5
26
100
AcDbSymbolTableRecord
100
AcDbBlockTableRecord
  2
Group-2
340
0
102
{BLKREFS
331
1A5
102
}
  0
BLOCK_RECORD
  5
27
100
AcDbSymbolTableRecord
100
AcDbBlockTableRecord
  2
Group-3
340
0
102
{BLKREFS
331
1A6
102
}
  0
BLOCK_RECORD
  5
28
100
AcDbSymbolTableRecord
100
AcDbBlockTableRecord
  2
Group-4
340
0
102
{BLKREFS
331
1AF
102
}
  0
BLOCK_RECORD
  5
29
100
AcDbSymbolTableRecord
100
AcDbBlockTableRecord
  2
Group-5
340
0
102
{BLKREFS
331
1DE
102
}
  0
ENDTAB
  0
ENDSEC
  0
SECTION
  2
BLOCKS
  0
BLOCK
  5
D
100
AcDbEntity
  8
0
390
0
100
AcDbBlockBegin
  2
*MODEL_SPACE
 70
               0
 10
0.0
 20
0.0
 30
0.0
  3
*MODEL_SPACE
  1

  0
ENDBLK
  5
E
100
AcDbEntity
  8
0
390
0
100
AcDbBlockEnd
  0
BLOCK
  5
F
100
AcDbEntity
 67
               1
  8
0
390
0
100
AcDbBlockBegin
  2
*PAPER_SPACE
 70
               0
 10
0.0
 20
0.0
 30
0.0
  3
*PAPER_SPACE
  1

  0
ENDBLK
  5
10
100
AcDbEntity
 67
               1
  8
0
390
0
100
AcDbBlockEnd
  0
BLOCK
  5
43
100
AcDbEntity
  8
Signals
390
0
100
AcDbBlockBegin
  2
Group
 70
               0
 10
0.0
 20
0.0
 30
0.0
  3
Group
  1

  0
LINE
  5
44
100
AcDbEntity
  8
None
370
              35
390
0
  6
Continuous
 62
               7
100
AcDbLine
 10
69.799999999999997
 20
27.999999999999993
 30
0.0
 11
62.0
 21
27.999999999999993
 31
0.0
  0
SOLID
  5
45
100
AcDbEntity
  8
None
370
               5
390
0
  6
Continuous
 62
               7
100
AcDbTrace
 10
61.8775727177268
 20
27.999999999999993
 30
0.0
 11
61.8775727177268
 21
30.399999999999995
 31
0.0
 12
62.477572717726801
 22
27.999999999999993
 32
0.0
 13
62.477572717726801
 23
30.399999999999995
 33
0.0
  0
SOLID
  5
46
100
AcDbEntity
  8
None
370
               5
390
0
  6
Continuous
 62
               7
100
AcDbTrace
 10
69.726543630636073
 20
27.497941825818536
 30
0.0
 11
69.726543630636073
 21
28.497941825818536
 31
0.0
 12
70.303893899825695
 22
27.497941825818536
 32
0.0
 13
70.303893899825695
 23
28.497941825818536
 33
0.0
  0
SOLID
  5
47
100
AcDbEntity
  8
None
370
               5
390
0
  6
Continuous
 62
               7
100
AcDbTrace
 10
63.799999999999997
 20
27.999999999999993
 30
0.0
 11
63.799999999999997
 21
28.799999999999994
 31
0.0
 12
65.799999999999997
 22
27.999999999999993
 32
0.0
 13
65.799999999999997
 23
28.799999999999994
 33
0.0
  0
LINE
  5
48
100
AcDbEntity
  8
None
370
              25
390
0
  6
Continuous
 62
               7
100
AcDbLine
 10
62.502058174181435
 20
30.30205817418145
 30
0.0
 11
65.702058174181431
 21
28.702058174181452
 31
0.0
  0
ENDBLK
  5
49
100
AcDbEntity
  8
Signals
390
0
100
AcDbBlockEnd
  0
BLOCK
  5
4A
100
AcDbEntity
  8
Signals
390
0
100
AcDbBlockBegin
  2
Group-1
 70
               0
 10
0.0
 20
0.0
 30
0.0
  3
Group-1
  1

  0
LINE
  5
4B
100
AcDbEntity
  8
None
370
              35
390
0
  6
Continuous
 62
               7
100
AcDbLine
 10
89.426543630636075
 20
18.297941825818544
 30
0.0
 11
81.626543630636064
 21
18.297941825818544
 31
0.0
  0
SOLID
  5
4C
100
AcDbEntity
  8
None
370
               5
390
0
  6
Continuous
 62
               7
100
AcDbTrace
 10
81.504116348362871
 20
18.297941825818544
 30
0.0
 11
81.504116348362871
 21
20.697941825818543
 31
0.0
 12
82.104116348362865
 22
18.297941825818544
 32
0.0
 13
82.104116348362865
 23
20.697941825818543
 33
0.0
  0
SOLID
  5
4D
100
AcDbEntity
  8
None
370
               5
390
0
  6
Continuous
 62
               7
100
AcDbTrace
 10
89.353087261272137
 20
17.795883651637087
 30
0.0
 11
89.353087261272137
 21
18.795883651637087
 31
0.0
 12
89.930437530461774
 22
17.795883651637087
 32
0.0
 13
89.930437530461774
 23
18.795883651637087
 33
0.0
  0
SOLID
  5
4E
100
AcDbEntity
  8
None
370
               5
390
0
  6
Continuous
 62
               7
100
AcDbTrace
 10
83.426543630636075
 20
18.297941825818544
 30
0.0
 11
83.426543630636075
 21
19.097941825818545
 31
0.0
 12
85.426543630636075
 22
18.297941825818544
 32
0.0
 13
85.426543630636075
 23
19.097941825818545
 33
0.0
  0
LINE
  5
4F
100
AcDbEntity
  8
None
370
              25
390
0
  6
Continuous
 62
               7
100
AcDbLine
 10
82.128601804817507
 20
20.600000000000001
 30
0.0
 11
85.328601804817509
 21
19.0
 31
0.0
  0
ENDBLK
  5
50
100
AcDbEntity
  8
Signals
390
0
100
AcDbBlockEnd
  0
BLOCK
  5
51
100
AcDbEntity
  8
Signals
390
0
100
AcDbBlockBegin
  2
Group-2
 70
               0
 10
0.0
 20
0.0
 30
0.0
  3
Group-2
  1

  0
LINE
  5
52
100
AcDbEntity
  8
None
370
              35
390
0
  6
Continuous
 62
               7
100
AcDbLine
 10
98.799999999999997
 20
9.5999999999999996
 30
0.0
 11
91.0
 21
9.5999999999999996
 31
0.0
  0
SOLID
  5
53
100
AcDbEntity
  8
None
370
               5
390
0
  6
Continuous
 62
               7
100
AcDbTrace
 10
90.877572717726792
 20
9.5999999999999996
 30
0.0
 11
90.877572717726792
 21
12.0
 31
0.0
 12
91.477572717726801
 22
9.5999999999999996
 32
0.0
 13
91.477572717726801
 23
12.0
 33
0.0
  0
SOLID
  5
54
100
AcDbEntity
  8
None
370
               5
390
0
  6
Continuous
 62
               7
100
AcDbTrace
 10
98.726543630636073
 20
9.0979418258185429
 30
0.0
 11
98.726543630636073
 21
10.097941825818543
 31
0.0
 12
99.303893899825695
 22
9.0979418258185429
 32
0.0
 13
99.303893899825695
 23
10.097941825818543
 33
0.0
  0
SOLID
  5
55
100
AcDbEntity
  8
None
370
               5
390
0
  6
Continuous
 62
               7
100
AcDbTrace
 10
92.799999999999997
 20
9.5999999999999996
 30
0.0
 11
92.799999999999997
 21
10.4
 31
0.0
 12
94.799999999999997
 22
9.5999999999999996
 32
0.0
 13
94.799999999999997
 23
10.4
 33
0.0
  0
LINE
  5
56
100
AcDbEntity
  8
None
370
              25
390
0
  6
Continuous
 62
               7
100
AcDbLine
 10
91.502058174181428
 20
11.902058174181457
 30
0.0
 11
94.702058174181431
 21
10.302058174181457
 31
0.0
  0
ENDBLK
  5
57
100
AcDbEntity
  8
Signals
390
0
100
AcDbBlockEnd
  0
BLOCK
  5
58
100
AcDbEntity
  8
Signals
390
0
100
AcDbBlockBegin
  2
Group-3
 70
               0
 10
0.0
 20
0.0
 30
0.0
  3
Group-3
  1

  0
LINE
  5
59
100
AcDbEntity
  8
None
370
              35
390
0
  6
Continuous
 62
               7
100
AcDbLine
 10
63.107021800470079
 20
39.476096120349204
 30
0.0
 11
55.307021800470082
 21
39.476096120349204
 31
0.0
  0
SOLID
  5
5A
100
AcDbEntity
  8
None
370
               5
390
0
  6
Continuous
 62
               7
100
AcDbTrace
 10
55.184594518196874
 20
39.476096120349204
 30
0.0
 11
55.184594518196874
 21
41.876096120349203
 31
0.0
 12
55.784594518196876
 22
39.476096120349204
 32
0.0
 13
55.784594518196876
 23
41.876096120349203
 33
0.0
  0
SOLID
  5
5B
100
AcDbEntity
  8
None
370
               5
390
0
  6
Continuous
 62
               7
100
AcDbTrace
 10
63.033565431106148
 20
38.974037946167748
 30
0.0
 11
63.033565431106148
 21
39.974037946167748
 31
0.0
 12
63.610915700295777
 22
38.974037946167748
 32
0.0
 13
63.610915700295777
 23
39.974037946167748
 33
0.0
  0
SOLID
  5
5C
100
AcDbEntity
  8
None
370
               5
390
0
  6
Continuous
 62
               7
100
AcDbTrace
 10
57.107021800470079
 20
39.476096120349204
 30
0.0
 11
57.107021800470079
 21
40.276096120349209
 31
0.0
 12
59.107021800470079
 22
39.476096120349204
 32
0.0
 13
59.107021800470079
 23
40.276096120349209
 33
0.0
  0
LINE
  5
5D
100
AcDbEntity
  8
None
370
              25
390
0
  6
Continuous
 62
               7
100
AcDbLine
 10
55.80907997465151
 20
41.778154294530665
 30
0.0
 11
59.009079974651513
 21
40.178154294530664
 31
0.0
  0
ENDBLK
  5
5E
100
AcDbEntity
  8
Signals
390
0
100
AcDbBlockEnd
  0
BLOCK
  5
5F
100
AcDbEntity
  8
Signals
390
0
100
AcDbBlockBegin
  2
Group-4
 70
               0
 10
0.0
 20
0.0
 30
0.0
  3
Group-4
  1

  0
LINE
  5
60
100
AcDbEntity
  8
None
370
              35
390
0
  6
Continuous
 62
               7
100
AcDbLine
 10
51.873456369363929
 20
45.600000000000001
 30
0.0
 11
44.073456369363932
 21
45.600000000000001
 31
0.0
  0
SOLID
  5
61
100
AcDbEntity
  8
None
370
               5
390
0
  6
Continuous
 62
               7
100
AcDbTrace
 10
43.951029087090731
 20
45.600000000000001
 30
0.0
 11
43.951029087090731
 21
48.0
 31
0.0
 12
44.551029087090726
 22
45.600000000000001
 32
0.0
 13
44.551029087090726
 23
48.0
 33
0.0
  0
SOLID
  5
62
100
AcDbEntity
  8
None
370
               5
390
0
  6
Continuous
 62
               7
100
AcDbTrace
 10
51.799999999999997
 20
45.097941825818545
 30
0.0
 11
51.799999999999997
 21
46.097941825818545
 31
0.0
 12
52.377350269189627
 22
45.097941825818545
 32
0.0
 13
52.377350269189627
 23
46.097941825818545
 33
0.0
  0
ENDBLK
  5
63
100
AcDbEntity
  8
Signals
390
0
100
AcDbBlockEnd
  0
BLOCK
  5
64
100
AcDbEntity
  8
Tracks_v1
390
0
100
AcDbBlockBegin
  2
Group-5
 70
               0
 10
0.0
 20
0.0
 30
0.0
  3
Group-5
  1

  0
LINE
  5
65
100
AcDbEntity
  8
None
370
              35
390
0
  6
Continuous
 62
               7
100
AcDbLine
 10
-202.52301170316491
 20
-40.170008790696315
 30
0.0
 11
-197.00757880990983
 21
-34.654575897441241
 31
0.0
  0
SOLID
  5
66
100
AcDbEntity
  8
None
370
               5
390
0
  6
Continuous
 62
               7
100
AcDbTrace
 10
-196.92100964841222
 20
-34.568006735943626
 30
0.0
 11
-195.22395337356451
 21
-36.26506301079133
 31
0.0
 12
-197.34527371712414
 22
-34.992270804655554
 32
0.0
 13
-195.64821744227646
 23
-36.689327079503258
 33
0.0
  0
SOLID
  5
67
100
AcDbEntity
  8
None
370
               5
390
0
  6
Continuous
 62
               7
100
AcDbTrace
 10
-202.82607894578018
 20
-39.763058554283887
 30
0.0
 11
-202.1189721645936
 21
-40.47016533547044
 31
0.0
 12
-203.23432723624404
 22
-40.171306844747761
 32
0.0
 13
-202.52722045505749
 23
-40.878413625934314
 33
0.0
  0
SOLID
  5
68
100
AcDbEntity
  8
None
370
               5
390
0
  6
Continuous
 62
               7
100
AcDbTrace
 10
-198.28037101604565
 20
-35.927368103577038
 30
0.0
 11
-197.71468559109638
 21
-36.493053528526282
 31
0.0
 12
-199.69458457841873
 22
-37.341581665950123
 32
0.0
 13
-199.12889915346949
 23
-37.907267090899367
 33
0.0
  0
LINE
  5
69
100
AcDbEntity
  8
None
370
              25
390
0
  6
Continuous
 62
               7
100
AcDbLine
 10
-195.73478660377401
 20
-36.637385582604686
 30
0.0
 11
-199.12889915346949
 21
-37.768756432503196
 31
0.0
  0
ENDBLK
  5
6A
100
AcDbEntity
  8
Tracks_v1
390
0
100
AcDbBlockEnd
  0
ENDSEC
  0
SECTION
  2
ENTITIES
  0
POLYLINE
  5
6B
102
{ACAD_REACTORS
330
72
102
}
100
AcDbEntity
  8
Infrastructure
390
0
100
AcDb2dPolyline
 66
               1
 10
0.0
 20
0.0
 30
0.0
 70
               1
 75
               5
  0
VERTEX
  5
6C
100
AcDbEntity
  8
Infrastructure
390
0
100
AcDbVertex
100
AcDb2dVertex
 10
-58.684108968500581
 20
15.826121168348564
 30
0.0
  0
VERTEX
  5
6D
100
AcDbEntity
  8
Infrastructure
390
0
100
AcDbVertex
100
AcDb2dVertex
 10
-32.600000000000001
 20
20.904443268410613
 30
0.0
  0
VERTEX
  5
6E
100
AcDbEntity
  8
Infrastructure
390
0
100
AcDbVertex
100
AcDb2dVertex
 10
-33.747807505265186
 20
26.800000000000001
 30
0.0
  0
VERTEX
  5
6F
100
AcDbEntity
  8
Infrastructure
390
0
100
AcDbVertex
100
AcDb2dVertex
 10
-59.831916473765773
 20
21.721677899937948
 30
0.0
  0
SEQEND
  5
70
100
AcDbEntity
  8
Infrastructure
390
0
  0
HATCH
  5
72
100
AcDbEntity
  8
Infrastructure
370
               0
390
0
  6
Continuous
 62
              31
100
AcDbHatch
 10
0.0
 20
0.0
 30
0.0
210
0.0
220
0.0
230
1.0
  2
SOLID
 70
               1
 71
               1
 91
        1
 92
        1
 93
        4
 72
               1
 10
-58.684108968500581
 20
15.826121168348564
 11
-32.600000000000001
 21
20.904443268410613
 72
               1
 10
-32.600000000000001
 20
20.904443268410613
 11
-33.747807505265186
 21
26.800000000000001
 72
               1
 10
-33.747807505265186
 20
26.800000000000001
 11
-59.831916473765773
 21
21.721677899937948
 72
               1
 10
-59.831916473765773
 20
21.721677899937948
 11
-58.684108968500581
 21
15.826121168348564
 97
        1
330
6B
 75
               0
 76
               1
 98
        1
 10
0.0
 20
0.0
  0
LINE
  5
73
100
AcDbEntity
  8
Tracks_v1
390
0
100
AcDbLine
 10
-171.02791634982995
 20
-2.9279727115241712
 30
0.0
 11
-184.46402756941978
 21
-26.199999999999999
 31
0.0
  0
ARC
  5
74
100
AcDbEntity
  8
Tracks_v1
370
             140
390
0
  6
STYLE_10
 62
               7
100
AcDbCircle
 10
-106.93500264353347
 20
-64.092913706299996
 30
0.0
 40
88.594873408438175
100
AcDbArc
 50
133.66092283318554
 51
136.76162868216926
  0
ARC
  5
75
100
AcDbEntity
  8
Tracks
390
0
100
AcDbCircle
 10
255.72568359375001
 20
-69.20241745283019
 30
0.0
 40
113.06713986810112
100
AcDbArc
 50
80.082106188050062
 51
85.396719214895015
  0
LINE
  5
76
100
AcDbEntity
  8
Tracks
390
0
100
AcDbLine
 10
-9.5
 20
43.5
 30
0.0
 11
-49.90707688918998
 21
54.883499080610513
 31
0.0
  0
ARC
  5
77
100
AcDbEntity
  8
Tracks
390
0
100
AcDbCircle
 10
23.964792247700224
 20
2.7632841308697609
 30
0.0
 40
41.155048134197514
100
AcDbArc
 50
71.154717194686867
 51
82.205135256659531
  0
ARC
  5
78
100
AcDbEntity
  8
Tracks
390
0
100
AcDbCircle
 10
4.2780981461907404
 20
2.3451771349839929
 30
0.0
 40
41.155048134198545
100
AcDbArc
 50
68.729898914570356
 51
90.189573296838716
  0
LINE
  5
79
100
AcDbEntity
  8
Tracks
390
0
100
AcDbLine
 10
46.387329079435929
 20
39.608571994738682
 30
0.0
 11
37.25843923854459
 21
41.712185740683211
 31
0.0
  0
POLYLINE
  5
7A
102
{ACAD_REACTORS
330
81
102
}
100
AcDbEntity
  8
Infrastructure
370
              13
390
0
 62
              45
100
AcDb2dPolyline
 66
               1
 10
0.0
 20
0.0
 30
0.0
 70
               1
 75
               5
  0
VERTEX
  5
7B
100
AcDbEntity
  8
Infrastructure
370
              13
390
0
 62
              45
100
AcDbVertex
100
AcDb2dVertex
 10
-199.0
 20
18.399999999999999
 30
0.0
  0
VERTEX
  5
7C
100
AcDbEntity
  8
Infrastructure
370
              13
390
0
 62
              45
100
AcDbVertex
100
AcDb2dVertex
 10
-185.0
 20
22.199999999999999
 30
0.0
  0
VERTEX
  5
7D
100
AcDbEntity
  8
Infrastructure
370
              13
390
0
 62
              45
100
AcDbVertex
100
AcDb2dVertex
 10
-183.23543052651587
 20
15.698954571374264
 30
0.0
  0
VERTEX
  5
7E
100
AcDbEntity
  8
Infrastructure
370
              13
390
0
 62
              45
100
AcDbVertex
100
AcDb2dVertex
 10
-197.23543052651587
 20
11.898954571374265
 30
0.0
  0
SEQEND
  5
7F
100
AcDbEntity
  8
Infrastructure
370
              13
390
0
 62
              45
  0
HATCH
  5
81
100
AcDbEntity
  8
Infrastructure
370
               0
390
0
  6
Continuous
 62
              31
100
AcDbHatch
 10
0.0
 20
0.0
 30
0.0
210
0.0
220
0.0
230
1.0
  2
SOLID
 70
               1
 71
               1
 91
        1
 92
        1
 93
        4
 72
               1
 10
-199.0
 20
18.399999999999999
 11
-185.0
 21
22.199999999999999
 72
               1
 10
-185.0
 20
22.199999999999999
 11
-183.23543052651587
 21
15.698954571374264
 72
               1
 10
-183.23543052651587
 20
15.698954571374264
 11
-197.23543052651587
 21
11.898954571374265
 72
               1
 10
-197.23543052651587
 20
11.898954571374265
 11
-199.0
 21
18.399999999999999
 97
        1
330
7A
 75
               0
 76
               1
 98
        1
 10
0.0
 20
0.0
  0
POLYLINE
  5
82
102
{ACAD_REACTORS
330
89
102
}
100
AcDbEntity
  8
Infrastructure
370
              35
390
0
  6
Continuous
 62
              45
100
AcDb2dPolyline
 66
               1
 10
0.0
 20
0.0
 30
0.0
 75
               5
  0
VERTEX
  5
83
100
AcDbEntity
  8
Infrastructure
370
              35
390
0
  6
Continuous
 62
              45
100
AcDbVertex
100
AcDb2dVertex
 10
21.0
 20
1.0
 30
0.0
  0
VERTEX
  5
84
100
AcDbEntity
  8
Infrastructure
370
              35
390
0
  6
Continuous
 62
              45
100
AcDbVertex
100
AcDb2dVertex
 10
21.0
 20
12.800000000000001
 30
0.0
  0
VERTEX
  5
85
100
AcDbEntity
  8
Infrastructure
370
              35
390
0
  6
Continuous
 62
              45
100
AcDbVertex
100
AcDb2dVertex
 10
-37.799999999999997
 20
2.2000000000000002
 30
0.0
  0
VERTEX
  5
86
100
AcDbEntity
  8
Infrastructure
370
              35
390
0
  6
Continuous
 62
              45
100
AcDbVertex
100
AcDb2dVertex
 10
-37.799999999999997
 20
0.0
 30
0.0
  0
SEQEND
  5
87
100
AcDbEntity
  8
Infrastructure
370
              35
390
0
  6
Continuous
 62
              45
  0
HATCH
  5
89
100
AcDbEntity
  8
Infrastructure
370
               0
390
0
  6
Continuous
 62
             255
100
AcDbHatch
 10
0.0
 20
0.0
 30
0.0
210
0.0
220
0.0
230
1.0
  2
SOLID
 70
               1
 71
               1
 91
        1
 92
        1
 93
        4
 72
               1
 10
21.0
 20
1.0
 11
21.0
 21
12.800000000000001
 72
               1
 10
21.0
 20
12.800000000000001
 11
-37.799999999999997
 21
2.2000000000000002
 72
               1
 10
-37.799999999999997
 20
2.2000000000000002
 11
-37.799999999999997
 21
0.0
 72
               1
 10
-37.799999999999997
 20
0.0
 11
21.0
 21
1.0
 97
        1
330
82
 75
               0
 76
               1
 98
        1
 10
0.0
 20
0.0
  0
POLYLINE
  5
8A
102
{ACAD_REACTORS
330
93
102
}
100
AcDbEntity
  8
Infrastructure
390
0
100
AcDb2dPolyline
 66
               1
 10
0.0
 20
0.0
 30
0.0
 70
               1
 75
               5
  0
VERTEX
  5
8B
100
AcDbEntity
  8
Infrastructure
390
0
100
AcDbVertex
100
AcDb2dVertex
 10
-69.0
 20
11.199999999999999
 30
0.0
  0
VERTEX
  5
8C
100
AcDbEntity
  8
Infrastructure
390
0
100
AcDbVertex
100
AcDb2dVertex
 10
0.0
 20
24.0
 30
0.0
  0
VERTEX
  5
8D
100
AcDbEntity
  8
Infrastructure
390
0
100
AcDbVertex
100
AcDb2dVertex
 10
11.4
 20
24.800000000000001
 30
0.0
  0
VERTEX
  5
8E
100
AcDbEntity
  8
Infrastructure
390
0
100
AcDbVertex
100
AcDb2dVertex
 10
20.800000000000001
 20
23.800000000000001
 30
0.0
  0
VERTEX
  5
8F
100
AcDbEntity
  8
Infrastructure
390
0
100
AcDbVertex
100
AcDb2dVertex
 10
21.800000000000001
 20
19.800000000000001
 30
0.0
  0
VERTEX
  5
90
100
AcDbEntity
  8
Infrastructure
390
0
100
AcDbVertex
100
AcDb2dVertex
 10
-67.400000000000006
 20
3.3999999999999999
 30
0.0
  0
SEQEND
  5
91
100
AcDbEntity
  8
Infrastructure
390
0
  0
HATCH
  5
93
100
AcDbEntity
  8
Infrastructure
370
               0
390
0
  6
Continuous
 62
             255
100
AcDbHatch
 10
0.0
 20
0.0
 30
0.0
210
0.0
220
0.0
230
1.0
  2
SOLID
 70
               1
 71
               1
 91
        1
 92
        1
 93
        6
 72
               1
 10
-69.0
 20
11.199999999999999
 11
0.0
 21
24.0
 72
               1
 10
0.0
 20
24.0
 11
11.4
 21
24.800000000000001
 72
               1
 10
11.4
 20
24.800000000000001
 11
20.800000000000001
 21
23.800000000000001
 72
               1
 10
20.800000000000001
 20
23.800000000000001
 11
21.800000000000001
 21
19.800000000000001
 72
               1
 10
21.800000000000001
 20
19.800000000000001
 11
-67.400000000000006
 21
3.3999999999999999
 72
               1
 10
-67.400000000000006
 20
3.3999999999999999
 11
-69.0
 21
11.199999999999999
 97
        1
330
8A
 75
               0
 76
               1
 98
        1
 10
0.0
 20
0.0
  0
POLYLINE
  5
94
102
{ACAD_REACTORS
330
9B
102
}
100
AcDbEntity
  8
Infrastructure
390
0
100
AcDb2dPolyline
 66
               1
 10
0.0
 20
0.0
 30
0.0
 70
               1
 75
               5
  0
VERTEX
  5
95
100
AcDbEntity
  8
Infrastructure
390
0
100
AcDbVertex
100
AcDb2dVertex
 10
22.399999999999999
 20
13.0
 30
0.0
  0
VERTEX
  5
96
100
AcDbEntity
  8
Infrastructure
390
0
100
AcDbVertex
100
AcDb2dVertex
 10
39.399999999999999
 20
13.0
 30
0.0
  0
VERTEX
  5
97
100
AcDbEntity
  8
Infrastructure
390
0
100
AcDbVertex
100
AcDb2dVertex
 10
39.399999999999999
 20
4.0
 30
0.0
  0
VERTEX
  5
98
100
AcDbEntity
  8
Infrastructure
390
0
100
AcDbVertex
100
AcDb2dVertex
 10
22.399999999999999
 20
4.0
 30
0.0
  0
SEQEND
  5
99
100
AcDbEntity
  8
Infrastructure
390
0
  0
HATCH
  5
9B
100
AcDbEntity
  8
Infrastructure
370
               0
390
0
  6
Continuous
 62
              31
100
AcDbHatch
 10
0.0
 20
0.0
 30
0.0
210
0.0
220
0.0
230
1.0
  2
SOLID
 70
               1
 71
               1
 91
        1
 92
        1
 93
        4
 72
               1
 10
22.399999999999999
 20
13.0
 11
39.399999999999999
 21
13.0
 72
               1
 10
39.399999999999999
 20
13.0
 11
39.399999999999999
 21
4.0
 72
               1
 10
39.399999999999999
 20
4.0
 11
22.399999999999999
 21
4.0
 72
               1
 10
22.399999999999999
 20
4.0
 11
22.399999999999999
 21
13.0
 97
        1
330
94
 75
               0
 76
               1
 98
        1
 10
0.0
 20
0.0
  0
POLYLINE
  5
9C
102
{ACAD_REACTORS
330
A3
102
}
100
AcDbEntity
  8
Buildings
390
0
100
AcDb2dPolyline
 66
               1
 10
0.0
 20
0.0
 30
0.0
 70
               1
 75
               5
  0
VERTEX
  5
9D
100
AcDbEntity
  8
Buildings
390
0
100
AcDbVertex
100
AcDb2dVertex
 10
-292.24140008964224
 20
36.826337931528826
 30
0.0
  0
VERTEX
  5
9E
100
AcDbEntity
  8
Buildings
390
0
100
AcDbVertex
100
AcDb2dVertex
 10
-264.04140008964225
 20
31.026337931528825
 30
0.0
  0
VERTEX
  5
9F
100
AcDbEntity
  8
Buildings
390
0
100
AcDbVertex
100
AcDb2dVertex
 10
-266.8385632102096
 20
17.426337931528803
 30
0.0
  0
VERTEX
  5
A0
100
AcDbEntity
  8
Buildings
390
0
100
AcDbVertex
100
AcDb2dVertex
 10
-295.03856321020965
 20
23.226337931528803
 30
0.0
  0
SEQEND
  5
A1
100
AcDbEntity
  8
Buildings
390
0
  0
HATCH
  5
A3
100
AcDbEntity
  8
Buildings
370
               0
390
0
  6
Continuous
 62
               8
100
AcDbHatch
 10
0.0
 20
0.0
 30
0.0
210
0.0
220
0.0
230
1.0
  2
SOLID
 70
               1
 71
               1
 91
        1
 92
        1
 93
        4
 72
               1
 10
-292.24140008964224
 20
36.826337931528826
 11
-264.04140008964225
 21
31.026337931528825
 72
               1
 10
-264.04140008964225
 20
31.026337931528825
 11
-266.8385632102096
 21
17.426337931528803
 72
               1
 10
-266.8385632102096
 20
17.426337931528803
 11
-295.03856321020965
 21
23.226337931528803
 72
               1
 10
-295.03856321020965
 20
23.226337931528803
 11
-292.24140008964224
 21
36.826337931528826
 97
        1
330
9C
 75
               0
 76
               1
 98
        1
 10
0.0
 20
0.0
  0
ARC
  5
A4
100
AcDbEntity
  8
Tracks
390
0
100
AcDbCircle
 10
-1.4335646267091988
 20
-56.325895966638925
 30
0.0
 40
93.36010486565074
100
AcDbArc
 50
77.105722734641887
 51
88.448900080428473
  0
WIPEOUT
  5
A5
100
AcDbEntity
  8
Lables-Infrastructure
390
0
  6
Continuous
 62
             253
 92
        0
100
AcDbWipeout
 90
        0
 10
57.0
 20
27.600000000000001
 30
0.0
 11
282.39999999999998
 21
0.0
 31
0.0
 12
0.0
 22
282.39999999999998
 32
0.0
 13
1.0
 23
1.0
340
0
 70
               7
280
               1
281
              50
282
              50
283
               0
360
0
 71
               2
 91
       11
 14
-0.5
 24
0.46671388101983
 14
-0.5
 24
0.4879603399433428
 14
-0.4504249291784703
 24
0.4915014164305949
 14
-0.4504249291784703
 24
0.5
 14
0.5
 24
0.5
 14
0.5
 24
0.3873937677053824
 14
-0.5
 24
0.3873937677053824
 14
-0.5
 24
0.438385269121813
 14
0.4844192634560908
 24
0.438385269121813
 14
0.4844192634560908
 24
0.46671388101983
 14
-0.5
 24
0.46671388101983
  0
POLYLINE
  5
A6
100
AcDbEntity
  8
Lables-Infrastructure
390
0
  6
Continuous
 62
             253
100
AcDb2dPolyline
 66
               1
 10
0.0
 20
0.0
 30
0.0
 70
               1
 75
               5
  0
VERTEX
  5
A7
100
AcDbEntity
  8
Lables-Infrastructure
390
0
  6
Continuous
 62
             253
100
AcDbVertex
100
AcDb2dVertex
 10
57.0
 20
37.0
 30
0.0
  0
VERTEX
  5
A8
100
AcDbEntity
  8
Lables-Infrastructure
390
0
  6
Continuous
 62
             253
100
AcDbVertex
100
AcDb2dVertex
 10
57.0
 20
31.0
 30
0.0
  0
VERTEX
  5
A9
100
AcDbEntity
  8
Lables-Infrastructure
390
0
  6
Continuous
 62
             253
100
AcDbVertex
100
AcDb2dVertex
 10
71.0
 20
30.0
 30
0.0
  0
VERTEX
  5
AA
100
AcDbEntity
  8
Lables-Infrastructure
390
0
  6
Continuous
 62
             253
100
AcDbVertex
100
AcDb2dVertex
 10
71.0
 20
27.600000000000001
 30
0.0
  0
VERTEX
  5
AB
100
AcDbEntity
  8
Lables-Infrastructure
390
0
  6
Continuous
 62
             253
100
AcDbVertex
100
AcDb2dVertex
 10
339.39999999999998
 20
27.600000000000001
 30
0.0
  0
VERTEX
  5
AC
100
AcDbEntity
  8
Lables-Infrastructure
390
0
  6
Continuous
 62
             253
100
AcDbVertex
100
AcDb2dVertex
 10
339.39999999999998
 20
59.399999999999999
 30
0.0
  0
VERTEX
  5
AD
100
AcDbEntity
  8
Lables-Infrastructure
390
0
  6
Continuous
 62
             253
100
AcDbVertex
100
AcDb2dVertex
 10
57.0
 20
59.399999999999999
 30
0.0
  0
VERTEX
  5
AE
100
AcDbEntity
  8
Lables-Infrastructure
390
0
  6
Continuous
 62
             253
100
AcDbVertex
100
AcDb2dVertex
 10
57.0
 20
45.0
 30
0.0
  0
VERTEX
  5
AF
100
AcDbEntity
  8
Lables-Infrastructure
390
0
  6
Continuous
 62
             253
100
AcDbVertex
100
AcDb2dVertex
 10
335.0
 20
45.0
 30
0.0
  0
VERTEX
  5
B0
100
AcDbEntity
  8
Lables-Infrastructure
390
0
  6
Continuous
 62
             253
100
AcDbVertex
100
AcDb2dVertex
 10
335.0
 20
37.0
 30
0.0
  0
SEQEND
  5
B1
100
AcDbEntity
  8
Lables-Infrastructure
390
0
  6
Continuous
 62
             253
  0
POLYLINE
  5
B3
100
AcDbEntity
  8
Modules
390
0
100
AcDb2dPolyline
 66
               1
 10
0.0
 20
0.0
 30
0.0
 70
               1
 75
               5
  0
VERTEX
  5
B4
100
AcDbEntity
  8
Modules
390
0
100
AcDbVertex
100
AcDb2dVertex
 10
0.0
 20
60.0
 30
0.0
  0
VERTEX
  5
B5
100
AcDbEntity
  8
Modules
390
0
100
AcDbVertex
100
AcDb2dVertex
 10
100.0
 20
60.0
 30
0.0
  0
VERTEX
  5
B6
100
AcDbEntity
  8
Modules
390
0
100
AcDbVertex
100
AcDb2dVertex
 10
100.0
 20
0.0
 30
0.0
  0
VERTEX
  5
B7
100
AcDbEntity
  8
Modules
390
0
100
AcDbVertex
100
AcDb2dVertex
 10
0.0
 20
0.0
 30
0.0
  0
SEQEND
  5
B8
100
AcDbEntity
  8
Modules
390
0
  0
POLYLINE
  5
BA
100
AcDbEntity
  8
Modules
390
0
100
AcDb2dPolyline
 66
               1
 10
0.0
 20
0.0
 30
0.0
 70
               1
 75
               5
  0
VERTEX
  5
BB
100
AcDbEntity
  8
Modules
390
0
100
AcDbVertex
100
AcDb2dVertex
 10
100.0
 20
60.0
 30
0.0
  0
VERTEX
  5
BC
100
AcDbEntity
  8
Modules
390
0
100
AcDbVertex
100
AcDb2dVertex
 10
140.0
 20
60.0
 30
0.0
  0
VERTEX
  5
BD
100
AcDbEntity
  8
Modules
390
0
100
AcDbVertex
100
AcDb2dVertex
 10
140.0
 20
0.0
 30
0.0
  0
VERTEX
  5
BE
100
AcDbEntity
  8
Modules
390
0
100
AcDbVertex
100
AcDb2dVertex
 10
100.0
 20
0.0
 30
0.0
  0
SEQEND
  5
BF
100
AcDbEntity
  8
Modules
390
0
  0
POLYLINE
  5
C1
100
AcDbEntity
  8
Modules
390
0
100
AcDb2dPolyline
 66
               1
 10
0.0
 20
0.0
 30
0.0
 70
               1
 75
               5
  0
VERTEX
  5
C2
100
AcDbEntity
  8
Modules
390
0
100
AcDbVertex
100
AcDb2dVertex
 10
140.0
 20
60.0
 30
0.0
  0
VERTEX
  5
C3
100
AcDbEntity
  8
Modules
390
0
100
AcDbVertex
100
AcDb2dVertex
 10
240.0
 20
60.0
 30
0.0
  0
VERTEX
  5
C4
100
AcDbEntity
  8
Modules
390
0
100
AcDbVertex
100
AcDb2dVertex
 10
240.0
 20
0.0
 30
0.0
  0
VERTEX
  5
C5
100
AcDbEntity
  8
Modules
390
0
100
AcDbVertex
100
AcDb2dVertex
 10
140.0
 20
0.0
 30
0.0
  0
SEQEND
  5
C6
100
AcDbEntity
  8
Modules
390
0
  0
POLYLINE
  5
C8
100
AcDbEntity
  8
Modules
390
0
100
AcDb2dPolyline
 66
               1
 10
0.0
 20
0.0
 30
0.0
 70
               1
 75
               5
  0
VERTEX
  5
C9
100
AcDbEntity
  8
Modules
390
0
100
AcDbVertex
100
AcDb2dVertex
 10
240.0
 20
60.0
 30
0.0
  0
VERTEX
  5
CA
100
AcDbEntity
  8
Modules
390
0
100
AcDbVertex
100
AcDb2dVertex
 10
340.0
 20
60.0
 30
0.0
  0
VERTEX
  5
CB
100
AcDbEntity
  8
Modules
390
0
100
AcDbVertex
100
AcDb2dVertex
 10
340.0
 20
0.0
 30
0.0
  0
VERTEX
  5
CC
100
AcDbEntity
  8
Modules
390
0
100
AcDbVertex
100
AcDb2dVertex
 10
240.0
 20
0.0
 30
0.0
  0
SEQEND
  5
CD
100
AcDbEntity
  8
Modules
390
0
  0
POLYLINE
  5
CF
100
AcDbEntity
  8
Modules
390
0
100
AcDb2dPolyline
 66
               1
 10
0.0
 20
0.0
 30
0.0
 70
               1
 75
               5
  0
VERTEX
  5
D0
100
AcDbEntity
  8
Modules
390
0
100
AcDbVertex
100
AcDb2dVertex
 10
-100.0
 20
60.0
 30
0.0
  0
VERTEX
  5
D1
100
AcDbEntity
  8
Modules
390
0
100
AcDbVertex
100
AcDb2dVertex
 10
0.0
 20
60.0
 30
0.0
  0
VERTEX
  5
D2
100
AcDbEntity
  8
Modules
390
0
100
AcDbVertex
100
AcDb2dVertex
 10
0.0
 20
0.0
 30
0.0
  0
VERTEX
  5
D3
100
AcDbEntity
  8
Modules
390
0
100
AcDbVertex
100
AcDb2dVertex
 10
-100.0
 20
0.0
 30
0.0
  0
SEQEND
  5
D4
100
AcDbEntity
  8
Modules
390
0
  0
POLYLINE
  5
D6
100
AcDbEntity
  8
Modules
390
0
100
AcDb2dPolyline
 66
               1
 10
0.0
 20
0.0
 30
0.0
 70
               1
 75
               5
  0
VERTEX
  5
D7
100
AcDbEntity
  8
Modules
390
0
100
AcDbVertex
100
AcDb2dVertex
 10
-200.0
 20
60.0
 30
0.0
  0
VERTEX
  5
D8
100
AcDbEntity
  8
Modules
390
0
100
AcDbVertex
100
AcDb2dVertex
 10
-100.0
 20
60.0
 30
0.0
  0
VERTEX
  5
D9
100
AcDbEntity
  8
Modules
390
0
100
AcDbVertex
100
AcDb2dVertex
 10
-100.0
 20
0.0
 30
0.0
  0
VERTEX
  5
DA
100
AcDbEntity
  8
Modules
390
0
100
AcDbVertex
100
AcDb2dVertex
 10
-200.0
 20
0.0
 30
0.0
  0
SEQEND
  5
DB
100
AcDbEntity
  8
Modules
390
0
  0
POLYLINE
  5
DD
100
AcDbEntity
  8
Modules
390
0
100
AcDb2dPolyline
 66
               1
 10
0.0
 20
0.0
 30
0.0
 70
               1
 75
               5
  0
VERTEX
  5
DE
100
AcDbEntity
  8
Modules
390
0
100
AcDbVertex
100
AcDb2dVertex
 10
-300.0
 20
60.0
 30
0.0
  0
VERTEX
  5
DF
100
AcDbEntity
  8
Modules
390
0
100
AcDbVertex
100
AcDb2dVertex
 10
-200.0
 20
60.0
 30
0.0
  0
VERTEX
  5
E0
100
AcDbEntity
  8
Modules
390
0
100
AcDbVertex
100
AcDb2dVertex
 10
-200.0
 20
0.0
 30
0.0
  0
VERTEX
  5
E1
100
AcDbEntity
  8
Modules
390
0
100
AcDbVertex
100
AcDb2dVertex
 10
-300.0
 20
0.0
 30
0.0
  0
SEQEND
  5
E2
100
AcDbEntity
  8
Modules
390
0
  0
LINE
  5
E4
100
AcDbEntity
  8
Tracks
390
0
100
AcDbLine
 10
59.199999999999569
 20
38.200000000000003
 30
0.0
 11
334.0
 21
38.200000000000003
 31
0.0
  0
LINE
  5
E5
100
AcDbEntity
  8
Tracks
370
             140
390
0
  6
Continuous
 62
               7
100
AcDbLine
 10
0.0
 20
43.5
 30
0.0
 11
334.0
 21
43.5
 31
0.0
  0
LINE
  5
E6
100
AcDbEntity
  8
Tracks
390
0
100
AcDbLine
 10
62.800000000000111
 20
26.199999999999999
 30
0.0
 11
334.0
 21
26.199999999999999
 31
0.0
  0
LINE
  5
E7
100
AcDbEntity
  8
Tracks
390
0
100
AcDbLine
 10
78.799999999999628
 20
16.899999999999999
 30
0.0
 11
339.20697489291933
 21
16.899999999999999
 31
0.0
  0
LINE
  5
E8
100
AcDbEntity
  8
Tracks
390
0
100
AcDbLine
 10
97.799999999999088
 20
7.5999999999999996
 30
0.0
 11
339.19999999999999
 21
7.5999999999999996
 31
0.0
  0
LINE
  5
E9
100
AcDbEntity
  8
Tracks
390
0
100
AcDbLine
 10
258.60000000000662
 20
19.351818181819578
 30
0.0
 11
283.43010752687832
 21
24.599999999999273
 31
0.0
  0
LINE
  5
EA
100
AcDbEntity
  8
Tracks
390
0
100
AcDbLine
 10
277.60000000000116
 20
14.835853658536326
 30
0.0
 11
301.52499999999964
 21
9.4089634146342291
 31
0.0
  0
LINE
  5
EB
100
AcDbEntity
  8
Tracks
390
0
100
AcDbLine
 10
19.18074865748812
 20
40.707254694291528
 30
0.0
 11
86.800000000001049
 21
10.173830860272426
 31
0.0
  0
LINE
  5
EC
100
AcDbEntity
  8
Tracks
390
0
100
AcDbLine
 10
19.400000000002123
 20
34.679992664097192
 30
0.0
 11
52.501104706589516
 21
27.29322621448167
 31
0.0
  0
ARC
  5
ED
100
AcDbEntity
  8
Tracks
390
0
100
AcDbCircle
 10
58.299999999999997
 20
88.991086313114081
 30
0.0
 40
50.799059527379079
100
AcDbArc
 50
256.43751050662871
 51
271.01515461279928
  0
ARC
  5
EE
100
AcDbEntity
  8
Tracks
390
0
100
AcDbCircle
 10
62.100000000000001
 20
68.663276666809068
 30
0.0
 40
42.469045966232535
100
AcDbArc
 50
256.93707741810761
 51
270.94442578089786
  0
ARC
  5
EF
100
AcDbEntity
  8
Tracks
390
0
100
AcDbCircle
 10
78.099999999999994
 20
46.203342408578294
 30
0.0
 40
29.311702037145221
100
AcDbArc
 50
249.2110709691693
 51
271.36842476274762
  0
ARC
  5
F0
100
AcDbEntity
  8
Tracks
390
0
100
AcDbCircle
 10
97.299999999999997
 20
30.255840967911912
 30
0.0
 40
22.661357637249267
100
AcDbArc
 50
242.39691055741548
 51
271.26427617962861
  0
ARC
  5
F1
100
AcDbEntity
  8
Tracks
390
0
100
AcDbCircle
 10
229.15496683340865
 20
154.70761537272494
 30
0.0
 40
138.52148501718983
100
AcDbArc
 50
275.81935975177879
 51
282.27280075489051
  0
ARC
  5
F2
100
AcDbEntity
  8
Tracks
390
0
100
AcDbCircle
 10
254.01743973209219
 20
-86.349013402454574
 30
0.0
 40
103.89665283800032
100
AcDbArc
 50
76.880607849579903
 51
83.599272314277613
  0
ARC
  5
F3
100
AcDbEntity
  8
Tracks
390
0
100
AcDbCircle
 10
296.10000000000002
 20
-24.611304775118537
 30
0.0
 40
50.816126307993841
100
AcDbArc
 50
89.210716811778084
 51
104.43776112782392
  0
ARC
  5
F4
100
AcDbEntity
  8
Tracks
390
0
100
AcDbCircle
 10
313.60000000000002
 20
48.705854444701643
 30
0.0
 40
41.110233149776676
100
AcDbArc
 50
252.91905197996948
 51
270.83625622273627
  0
LINE
  5
F5
100
AcDbEntity
  8
Tracks
390
0
100
AcDbLine
 10
291.2000000000055
 20
39.524999999999082
 30
0.0
 11
275.19999999999811
 21
42.17500000000031
 31
0.0
  0
ARC
  5
F6
100
AcDbEntity
  8
Tracks
390
0
100
AcDbCircle
 10
303.19999999999999
 20
92.960613207547169
 30
0.0
 40
54.766456511870373
100
AcDbArc
 50
257.34310509239884
 51
270.83697680621088
  0
LINE
  5
F7
100
AcDbEntity
  8
Tracks
390
0
100
AcDbLine
 10
86.799999999999997
 20
10.173830860272892
 30
0.0
 11
27.59999999999992
 21
23.695826402575271
 31
0.0
  0
LINE
  5
F8
100
AcDbEntity
  8
Tracks
390
0
100
AcDbLine
 10
32.77522537174805
 20
14.815370119389661
 30
0.0
 11
66.479099635842161
 21
14.815370119389661
 31
0.0
  0
LINE
  5
F9
100
AcDbEntity
  8
Tracks
390
0
100
AcDbLine
 10
45.0
 20
19.7214560911553
 30
0.0
 11
30.862010565256107
 21
19.7214560911553
 31
0.0
  0
ARC
  5
FA
100
AcDbEntity
  8
Tracks
390
0
100
AcDbCircle
 10
35.413786008230623
 20
-64.683894767282922
 30
0.0
 40
84.527994849158247
100
AcDbArc
 50
91.186290749410006
 51
97.256984148911258
  0
LINE
  5
FB
100
AcDbEntity
  8
Tracks
390
0
100
AcDbLine
 10
-89.0
 20
9.0
 30
0.0
 11
0.0
 21
25.5
 31
0.0
  0
LINE
  5
FC
100
AcDbEntity
  8
Tracks
390
0
100
AcDbLine
 10
-66.892592592592635
 20
2.1796296296296309
 30
0.0
 11
24.736218994927491
 21
19.166993575630563
 31
0.0
  0
LINE
  5
FD
100
AcDbEntity
  8
Tracks
390
0
100
AcDbLine
 10
-38.715067320454828
 20
3.2476746461386448
 30
0.0
 11
8.2793771239892706
 21
11.960127829659189
 31
0.0
  0
ARC
  5
FE
100
AcDbEntity
  8
Tracks
390
0
100
AcDbCircle
 10
36.023212874415876
 20
-119.55560964335734
 30
0.0
 40
134.410228871236
100
AcDbArc
 50
91.384672085187944
 51
101.91214759285278
  0
ARC
  5
FF
100
AcDbEntity
  8
Tracks
390
0
100
AcDbCircle
 10
8.7751734156124108
 20
-52.271194032658471
 30
0.0
 40
78.264693762510063
100
AcDbArc
 50
76.082312422617051
 51
96.437638912841251
  0
POLYLINE
  5
100
102
{ACAD_REACTORS
330
107
102
}
100
AcDbEntity
  8
Buildings
390
0
100
AcDb2dPolyline
 66
               1
 10
0.0
 20
0.0
 30
0.0
 70
               1
 75
               5
  0
VERTEX
  5
101
100
AcDbEntity
  8
Buildings
390
0
100
AcDbVertex
100
AcDb2dVertex
 10
243.34979423868313
 20
59.477777777777803
 30
0.0
  0
VERTEX
  5
102
100
AcDbEntity
  8
Buildings
390
0
100
AcDbVertex
100
AcDb2dVertex
 10
271.3497942386831
 20
59.477777777777803
 30
0.0
  0
VERTEX
  5
103
100
AcDbEntity
  8
Buildings
390
0
100
AcDbVertex
100
AcDb2dVertex
 10
271.3497942386831
 20
50.477777777777803
 30
0.0
  0
VERTEX
  5
104
100
AcDbEntity
  8
Buildings
390
0
100
AcDbVertex
100
AcDb2dVertex
 10
243.34979423868313
 20
50.477777777777803
 30
0.0
  0
SEQEND
  5
105
100
AcDbEntity
  8
Buildings
390
0
  0
HATCH
  5
107
100
AcDbEntity
  8
Buildings
370
               0
390
0
  6
Continuous
 62
               8
100
AcDbHatch
 10
0.0
 20
0.0
 30
0.0
210
0.0
220
0.0
230
1.0
  2
SOLID
 70
               1
 71
               1
 91
        1
 92
        1
 93
        4
 72
               1
 10
243.34979423868313
 20
59.477777777777803
 11
271.3497942386831
 21
59.477777777777803
 72
               1
 10
271.3497942386831
 20
59.477777777777803
 11
271.3497942386831
 21
50.477777777777803
 72
               1
 10
271.3497942386831
 20
50.477777777777803
 11
243.34979423868313
 21
50.477777777777803
 72
               1
 10
243.34979423868313
 20
50.477777777777803
 11
243.34979423868313
 21
59.477777777777803
 97
        1
330
100
 75
               0
 76
               1
 98
        1
 10
0.0
 20
0.0
  0
POLYLINE
  5
108
102
{ACAD_REACTORS
330
10F
102
}
100
AcDbEntity
  8
Buildings
390
0
100
AcDb2dPolyline
 66
               1
 10
0.0
 20
0.0
 30
0.0
 70
               1
 75
               5
  0
VERTEX
  5
109
100
AcDbEntity
  8
Buildings
390
0
100
AcDbVertex
100
AcDb2dVertex
 10
271.3497942386831
 20
58.200000000000003
 30
0.0
  0
VERTEX
  5
10A
100
AcDbEntity
  8
Buildings
390
0
100
AcDbVertex
100
AcDb2dVertex
 10
280.39999999999998
 20
58.200000000000003
 30
0.0
  0
VERTEX
  5
10B
100
AcDbEntity
  8
Buildings
390
0
100
AcDbVertex
100
AcDb2dVertex
 10
280.39999999999998
 20
52.200000000000003
 30
0.0
  0
VERTEX
  5
10C
100
AcDbEntity
  8
Buildings
390
0
100
AcDbVertex
100
AcDb2dVertex
 10
271.3497942386831
 20
52.200000000000003
 30
0.0
  0
SEQEND
  5
10D
100
AcDbEntity
  8
Buildings
390
0
  0
HATCH
  5
10F
100
AcDbEntity
  8
Buildings
370
               0
390
0
  6
Continuous
 62
               8
100
AcDbHatch
 10
0.0
 20
0.0
 30
0.0
210
0.0
220
0.0
230
1.0
  2
SOLID
 70
               1
 71
               1
 91
        1
 92
        1
 93
        4
 72
               1
 10
271.3497942386831
 20
58.200000000000003
 11
280.39999999999998
 21
58.200000000000003
 72
               1
 10
280.39999999999998
 20
58.200000000000003
 11
280.39999999999998
 21
52.200000000000003
 72
               1
 10
280.39999999999998
 20
52.200000000000003
 11
271.3497942386831
 21
52.200000000000003
 72
               1
 10
271.3497942386831
 20
52.200000000000003
 11
271.3497942386831
 21
58.200000000000003
 97
        1
330
108
 75
               0
 76
               1
 98
        1
 10
0.0
 20
0.0
  0
POLYLINE
  5
110
102
{ACAD_REACTORS
330
117
102
}
100
AcDbEntity
  8
Buildings
390
0
100
AcDb2dPolyline
 66
               1
 10
0.0
 20
0.0
 30
0.0
 70
               1
 75
               5
  0
VERTEX
  5
111
100
AcDbEntity
  8
Buildings
390
0
100
AcDbVertex
100
AcDb2dVertex
 10
7.0
 20
54.498590709320183
 30
0.0
  0
VERTEX
  5
112
100
AcDbEntity
  8
Buildings
390
0
100
AcDbVertex
100
AcDb2dVertex
 10
18.0
 20
54.498590709320183
 30
0.0
  0
VERTEX
  5
113
100
AcDbEntity
  8
Buildings
390
0
100
AcDbVertex
100
AcDb2dVertex
 10
18.0
 20
47.498590709320183
 30
0.0
  0
VERTEX
  5
114
100
AcDbEntity
  8
Buildings
390
0
100
AcDbVertex
100
AcDb2dVertex
 10
7.0
 20
47.498590709320183
 30
0.0
  0
SEQEND
  5
115
100
AcDbEntity
  8
Buildings
390
0
  0
HATCH
  5
117
100
AcDbEntity
  8
Buildings
370
               0
390
0
  6
Continuous
 62
               8
100
AcDbHatch
 10
0.0
 20
0.0
 30
0.0
210
0.0
220
0.0
230
1.0
  2
SOLID
 70
               1
 71
               1
 91
        1
 92
        1
 93
        4
 72
               1
 10
7.0
 20
54.498590709320183
 11
18.0
 21
54.498590709320183
 72
               1
 10
18.0
 20
54.498590709320183
 11
18.0
 21
47.498590709320183
 72
               1
 10
18.0
 20
47.498590709320183
 11
7.0
 21
47.498590709320183
 72
               1
 10
7.0
 20
47.498590709320183
 11
7.0
 21
54.498590709320183
 97
        1
330
110
 75
               0
 76
               1
 98
        1
 10
0.0
 20
0.0
  0
POLYLINE
  5
118
102
{ACAD_REACTORS
330
11F
102
}
100
AcDbEntity
  8
Buildings
390
0
100
AcDb2dPolyline
 66
               1
 10
0.0
 20
0.0
 30
0.0
 70
               1
 75
               5
  0
VERTEX
  5
119
100
AcDbEntity
  8
Buildings
390
0
100
AcDbVertex
100
AcDb2dVertex
 10
105.04032921810699
 20
59.445267489711931
 30
0.0
  0
VERTEX
  5
11A
100
AcDbEntity
  8
Buildings
390
0
100
AcDbVertex
100
AcDb2dVertex
 10
116.04032921810699
 20
59.445267489711931
 30
0.0
  0
VERTEX
  5
11B
100
AcDbEntity
  8
Buildings
390
0
100
AcDbVertex
100
AcDb2dVertex
 10
116.04032921810699
 20
52.445267489711931
 30
0.0
  0
VERTEX
  5
11C
100
AcDbEntity
  8
Buildings
390
0
100
AcDbVertex
100
AcDb2dVertex
 10
105.04032921810699
 20
52.445267489711931
 30
0.0
  0
SEQEND
  5
11D
100
AcDbEntity
  8
Buildings
390
0
  0
HATCH
  5
11F
100
AcDbEntity
  8
Buildings
370
               0
390
0
  6
Continuous
 62
               8
100
AcDbHatch
 10
0.0
 20
0.0
 30
0.0
210
0.0
220
0.0
230
1.0
  2
SOLID
 70
               1
 71
               1
 91
        1
 92
        1
 93
        4
 72
               1
 10
105.04032921810699
 20
59.445267489711931
 11
116.04032921810699
 21
59.445267489711931
 72
               1
 10
116.04032921810699
 20
59.445267489711931
 11
116.04032921810699
 21
52.445267489711931
 72
               1
 10
116.04032921810699
 20
52.445267489711931
 11
105.04032921810699
 21
52.445267489711931
 72
               1
 10
105.04032921810699
 20
52.445267489711931
 11
105.04032921810699
 21
59.445267489711931
 97
        1
330
118
 75
               0
 76
               1
 98
        1
 10
0.0
 20
0.0
  0
POLYLINE
  5
120
102
{ACAD_REACTORS
330
127
102
}
100
AcDbEntity
  8
Planting
390
0
100
AcDb2dPolyline
 66
               1
 10
0.0
 20
0.0
 30
0.0
 70
               1
 75
               5
  0
VERTEX
  5
121
100
AcDbEntity
  8
Planting
390
0
100
AcDbVertex
100
AcDb2dVertex
 10
116.03353147386069
 20
60.0
 30
0.0
  0
VERTEX
  5
122
100
AcDbEntity
  8
Planting
390
0
100
AcDbVertex
100
AcDb2dVertex
 10
132.43353147386068
 20
60.0
 30
0.0
  0
VERTEX
  5
123
100
AcDbEntity
  8
Planting
390
0
100
AcDbVertex
100
AcDb2dVertex
 10
132.43353147386068
 20
50.531455585290146
 30
0.0
  0
VERTEX
  5
124
100
AcDbEntity
  8
Planting
390
0
100
AcDbVertex
100
AcDb2dVertex
 10
116.03353147386069
 20
50.531455585290146
 30
0.0
  0
SEQEND
  5
125
100
AcDbEntity
  8
Planting
390
0
  0
HATCH
  5
127
100
AcDbEntity
  8
Planting
370
               0
390
0
  6
Continuous
 62
             255
100
AcDbHatch
 10
0.0
 20
0.0
 30
0.0
210
0.0
220
0.0
230
1.0
  2
SOLID
 70
               1
 71
               1
 91
        1
 92
        1
 93
        4
 72
               1
 10
116.03353147386069
 20
60.0
 11
132.43353147386068
 21
60.0
 72
               1
 10
132.43353147386068
 20
60.0
 11
132.43353147386068
 21
50.531455585290146
 72
               1
 10
132.43353147386068
 20
50.531455585290146
 11
116.03353147386069
 21
50.531455585290146
 72
               1
 10
116.03353147386069
 20
50.531455585290146
 11
116.03353147386069
 21
60.0
 97
        1
330
120
 75
               0
 76
               1
 98
        1
 10
0.0
 20
0.0
  0
LINE
  5
128
100
AcDbEntity
  8
Tracks
390
0
100
AcDbLine
 10
334.0
 20
44.399999999999999
 30
0.0
 11
334.0
 21
42.600000000000001
 31
0.0
  0
LINE
  5
129
100
AcDbEntity
  8
Tracks
390
0
100
AcDbLine
 10
334.0
 20
37.600000000000001
 30
0.0
 11
334.0
 21
39.0
 31
0.0
  0
LINE
  5
12A
100
AcDbEntity
  8
Tracks
390
0
100
AcDbLine
 10
334.0
 20
27.0
 30
0.0
 11
334.0
 21
25.199999999999999
 31
0.0
  0
LINE
  5
12B
100
AcDbEntity
  8
Tracks
390
0
100
AcDbLine
 10
339.20697489291933
 20
18.0
 30
0.0
 11
339.20697489291933
 21
15.800000000000001
 31
0.0
  0
LINE
  5
12C
100
AcDbEntity
  8
Tracks
390
0
100
AcDbLine
 10
339.19999999999999
 20
8.8000000000000007
 30
0.0
 11
339.19999999999999
 21
6.4000000000000004
 31
0.0
  0
LINE
  5
12D
100
AcDbEntity
  8
Tracks
390
0
100
AcDbLine
 10
-39.220622876010296
 20
4.0680450165090125
 30
0.0
 11
-38.82062287601029
 21
2.2680450165090136
 31
0.0
  0
LINE
  5
12E
100
AcDbEntity
  8
Tracks
390
0
100
AcDbLine
 10
-67.400000000000006
 20
3.0
 30
0.0
 11
-67.0
 21
1.2
 31
0.0
  0
LINE
  5
12F
100
AcDbEntity
  8
Tracks
390
0
100
AcDbLine
 10
-89.400000000000006
 20
9.8000000000000007
 30
0.0
 11
-89.0
 21
8.1999999999999993
 31
0.0
  0
POLYLINE
  5
130
102
{ACAD_REACTORS
330
137
102
}
100
AcDbEntity
  8
Buildings
390
0
100
AcDb2dPolyline
 66
               1
 10
0.0
 20
0.0
 30
0.0
 70
               1
 75
               5
  0
VERTEX
  5
131
100
AcDbEntity
  8
Buildings
390
0
100
AcDbVertex
100
AcDb2dVertex
 10
-81.28410896850059
 20
11.426121168348564
 30
0.0
  0
VERTEX
  5
132
100
AcDbEntity
  8
Buildings
390
0
100
AcDbVertex
100
AcDb2dVertex
 10
-58.684108968500581
 20
15.826121168348564
 30
0.0
  0
VERTEX
  5
133
100
AcDbEntity
  8
Buildings
390
0
100
AcDbVertex
100
AcDb2dVertex
 10
-61.088455154269845
 20
28.175717486163428
 30
0.0
  0
VERTEX
  5
134
100
AcDbEntity
  8
Buildings
390
0
100
AcDbVertex
100
AcDb2dVertex
 10
-83.688455154269846
 20
23.775717486163401
 30
0.0
  0
SEQEND
  5
135
100
AcDbEntity
  8
Buildings
390
0
  0
HATCH
  5
137
100
AcDbEntity
  8
Buildings
370
               0
390
0
  6
Continuous
 62
               8
100
AcDbHatch
 10
0.0
 20
0.0
 30
0.0
210
0.0
220
0.0
230
1.0
  2
SOLID
 70
               1
 71
               1
 91
        1
 92
        1
 93
        4
 72
               1
 10
-81.28410896850059
 20
11.426121168348564
 11
-58.684108968500581
 21
15.826121168348564
 72
               1
 10
-58.684108968500581
 20
15.826121168348564
 11
-61.088455154269845
 21
28.175717486163428
 72
               1
 10
-61.088455154269845
 20
28.175717486163428
 11
-83.688455154269846
 21
23.775717486163401
 72
               1
 10
-83.688455154269846
 20
23.775717486163401
 11
-81.28410896850059
 21
11.426121168348564
 97
        1
330
130
 75
               0
 76
               1
 98
        1
 10
0.0
 20
0.0
  0
POLYLINE
  5
138
102
{ACAD_REACTORS
330
13F
102
}
100
AcDbEntity
  8
Buildings
390
0
100
AcDb2dPolyline
 66
               1
 10
0.0
 20
0.0
 30
0.0
 70
               1
 75
               5
  0
VERTEX
  5
139
100
AcDbEntity
  8
Buildings
390
0
100
AcDbVertex
100
AcDb2dVertex
 10
-81.885195514942893
 20
14.513520247802273
 30
0.0
  0
VERTEX
  5
13A
100
AcDbEntity
  8
Buildings
390
0
100
AcDbVertex
100
AcDb2dVertex
 10
-89.200000000000003
 20
13.089399020623015
 30
0.0
  0
VERTEX
  5
13B
100
AcDbEntity
  8
Buildings
390
0
100
AcDbVertex
100
AcDb2dVertex
 10
-90.539119749093132
 20
19.967605004601335
 30
0.0
  0
VERTEX
  5
13C
100
AcDbEntity
  8
Buildings
390
0
100
AcDbVertex
100
AcDb2dVertex
 10
-83.224315264036022
 20
21.391726231780599
 30
0.0
  0
SEQEND
  5
13D
100
AcDbEntity
  8
Buildings
390
0
  0
HATCH
  5
13F
100
AcDbEntity
  8
Buildings
370
               0
390
0
  6
Continuous
 62
               8
100
AcDbHatch
 10
0.0
 20
0.0
 30
0.0
210
0.0
220
0.0
230
1.0
  2
SOLID
 70
               1
 71
               1
 91
        1
 92
        1
 93
        4
 72
               1
 10
-81.885195514942893
 20
14.513520247802273
 11
-89.200000000000003
 21
13.089399020623015
 72
               1
 10
-89.200000000000003
 20
13.089399020623015
 11
-90.539119749093132
 21
19.967605004601335
 72
               1
 10
-90.539119749093132
 20
19.967605004601335
 11
-83.224315264036022
 21
21.391726231780599
 72
               1
 10
-83.224315264036022
 20
21.391726231780599
 11
-81.885195514942893
 21
14.513520247802273
 97
        1
330
138
 75
               0
 76
               1
 98
        1
 10
0.0
 20
0.0
  0
LINE
  5
140
100
AcDbEntity
  8
Tracks
390
0
100
AcDbLine
 10
1.0935528120718485
 20
37.0
 30
0.0
 11
-59.999999999998202
 21
37.0
 31
0.0
  0
LINE
  5
141
100
AcDbEntity
  8
Tracks
370
             140
390
0
  6
Continuous
 62
               7
100
AcDbLine
 10
0.0
 20
43.5
 30
0.0
 11
-67.468191769827399
 21
43.5
 31
0.0
  0
LINE
  5
142
100
AcDbEntity
  8
Tracks
390
0
100
AcDbLine
 10
-298.19999999999999
 20
54.883499080610513
 30
0.0
 11
-49.907076889190009
 21
54.883499080610513
 31
0.0
  0
LINE
  5
143
100
AcDbEntity
  8
Tracks
390
0
100
AcDbLine
 10
-298.19999999999999
 20
50.383499080610513
 30
0.0
 11
-33.93379444644188
 21
50.383499080610513
 31
0.0
  0
LINE
  5
144
100
AcDbEntity
  8
Tracks
390
0
100
AcDbLine
 10
-85.467261192524035
 20
50.383499080610513
 30
0.0
 11
-200.00000000000171
 21
19.723539924163013
 31
0.0
  0
LINE
  5
145
100
AcDbEntity
  8
Tracks
390
0
100
AcDbLine
 10
-118.96726119252412
 20
41.415682171355428
 30
0.0
 11
-273.38080374390285
 21
41.415682171355428
 31
0.0
  0
LINE
  5
146
100
AcDbEntity
  8
Tracks
390
0
100
AcDbLine
 10
-221.44150231569455
 20
37.201251929745524
 30
0.0
 11
-163.84199206554575
 21
37.201251929745524
 31
0.0
  0
LINE
  5
147
100
AcDbEntity
  8
Tracks
390
0
100
AcDbLine
 10
-163.84199206554575
 20
37.201251929745524
 30
0.0
 11
-147.5
 21
41.415682171355428
 31
0.0
  0
CIRCLE
  5
148
100
AcDbEntity
  8
Tracks
370
              50
390
0
100
AcDbCircle
 10
-232.23488256305896
 20
18.482331756343108
 30
0.0
 40
15.0
  0
LINE
  5
149
100
AcDbEntity
  8
Tracks
390
0
100
AcDbLine
 10
-298.39999999999998
 20
56.0
 30
0.0
 11
-298.39999999999998
 21
53.799999999999997
 31
0.0
  0
LINE
  5
14A
100
AcDbEntity
  8
Tracks
390
0
100
AcDbLine
 10
-298.39999999999998
 20
51.399999999999999
 30
0.0
 11
-298.39999999999998
 21
49.399999999999999
 31
0.0
  0
LINE
  5
14B
100
AcDbEntity
  8
Tracks
390
0
100
AcDbLine
 10
-273.38080374390285
 20
42.600000000000001
 30
0.0
 11
-273.38080374390285
 21
40.600000000000001
 31
0.0
  0
LINE
  5
14C
100
AcDbEntity
  8
Tracks
390
0
100
AcDbLine
 10
-221.64150231569457
 20
38.201251929745524
 30
0.0
 11
-221.64150231569457
 21
36.201251929745524
 31
0.0
  0
LINE
  5
14D
100
AcDbEntity
  8
Tracks
390
0
100
AcDbLine
 10
-217.23488256305896
 20
18.482331756343108
 30
0.0
 11
-209.1999999999951
 21
18.482331756343108
 31
0.0
  0
LINE
  5
14E
100
AcDbEntity
  8
Tracks
390
0
100
AcDbLine
 10
-212.64140008964222
 20
14.903500224105603
 30
0.0
 11
-217.46701601573983
 21
15.85362149452896
 31
0.0
  0
LINE
  5
14F
100
AcDbEntity
  8
Tracks
390
0
100
AcDbLine
 10
-246.89700190885924
 20
21.64812648902916
 30
0.0
 11
-289.84140008964221
 21
30.103500224105574
 31
0.0
  0
LINE
  5
150
100
AcDbEntity
  8
Tracks
390
0
100
AcDbLine
 10
-217.23488256305896
 20
18.482331756343108
 30
0.0
 11
-249.99999999999756
 21
18.482331756343108
 31
0.0
  0
LINE
  5
151
100
AcDbEntity
  8
Tracks
390
0
100
AcDbLine
 10
-256.07411511372118
 20
18.82678443411239
 30
0.0
 11
-290.64140008964222
 21
26.103500224105574
 31
0.0
  0
POLYLINE
  5
152
102
{ACAD_REACTORS
330
159
102
}
100
AcDbEntity
  8
Buildings
390
0
100
AcDb2dPolyline
 66
               1
 10
0.0
 20
0.0
 30
0.0
 70
               1
 75
               5
  0
VERTEX
  5
153
100
AcDbEntity
  8
Buildings
390
0
100
AcDbVertex
100
AcDb2dVertex
 10
-295.03856321020965
 20
23.226337931528803
 30
0.0
  0
VERTEX
  5
154
100
AcDbEntity
  8
Buildings
390
0
100
AcDbVertex
100
AcDb2dVertex
 10
-287.44140008964223
 20
21.663800835809269
 30
0.0
  0
VERTEX
  5
155
100
AcDbEntity
  8
Buildings
390
0
100
AcDbVertex
100
AcDb2dVertex
 10
-289.22098069003101
 20
13.011357227022444
 30
0.0
  0
VERTEX
  5
156
100
AcDbEntity
  8
Buildings
390
0
100
AcDbVertex
100
AcDb2dVertex
 10
-296.81814381059837
 20
14.573894322741978
 30
0.0
  0
SEQEND
  5
157
100
AcDbEntity
  8
Buildings
390
0
  0
HATCH
  5
159
100
AcDbEntity
  8
Buildings
370
               0
390
0
  6
Continuous
 62
               8
100
AcDbHatch
 10
0.0
 20
0.0
 30
0.0
210
0.0
220
0.0
230
1.0
  2
SOLID
 70
               1
 71
               1
 91
        1
 92
        1
 93
        4
 72
               1
 10
-295.03856321020965
 20
23.226337931528803
 11
-287.44140008964223
 21
21.663800835809269
 72
               1
 10
-287.44140008964223
 20
21.663800835809269
 11
-289.22098069003101
 21
13.011357227022444
 72
               1
 10
-289.22098069003101
 20
13.011357227022444
 11
-296.81814381059837
 21
14.573894322741978
 72
               1
 10
-296.81814381059837
 20
14.573894322741978
 11
-295.03856321020965
 21
23.226337931528803
 97
        1
330
152
 75
               0
 76
               1
 98
        1
 10
0.0
 20
0.0
  0
ARC
  5
15A
100
AcDbEntity
  8
Tracks
390
0
100
AcDbCircle
 10
-62.249999999999737
 20
-112.43113307874039
 30
0.0
 40
149.44807135990825
100
AcDbArc
 50
89.137356719741973
 51
131.20920928188707
  0
ARC
  5
15B
100
AcDbEntity
  8
Lables
370
             140
390
0
  6
Continuous
 62
               7
100
AcDbCircle
 10
-61.981327201136956
 20
-107.34258703153785
 30
0.0
 40
150.94234576540217
100
AcDbArc
 50
92.083202407839011
 51
134.67147388085766
  0
POLYLINE
  5
15C
100
AcDbEntity
  8
Tracks_v1
370
              50
390
0
 62
              45
100
AcDb2dPolyline
 66
               1
 10
0.0
 20
0.0
 30
0.0
 75
               5
  0
VERTEX
  5
15D
100
AcDbEntity
  8
Tracks_v1
370
              50
390
0
 62
              45
100
AcDbVertex
100
AcDb2dVertex
 10
-199.94356604159611
 20
0.0
 30
0.0
  0
VERTEX
  5
15E
100
AcDbEntity
  8
Tracks_v1
370
              50
390
0
 62
              45
100
AcDbVertex
100
AcDb2dVertex
 10
-228.17683669969824
 20
-28.233348710449043
 30
0.0
  0
VERTEX
  5
15F
100
AcDbEntity
  8
Tracks_v1
370
              50
390
0
 62
              45
100
AcDbVertex
100
AcDb2dVertex
 10
-192.81897232342919
 20
-63.591213086718334
 30
0.0
  0
VERTEX
  5
160
100
AcDbEntity
  8
Tracks_v1
370
              50
390
0
 62
              45
100
AcDbVertex
100
AcDb2dVertex
 10
-129.23016607475671
 20
0.0
 30
0.0
  0
SEQEND
  5
161
100
AcDbEntity
  8
Tracks_v1
370
              50
390
0
 62
              45
  0
LINE
  5
163
100
AcDbEntity
  8
Tracks_v1
390
0
100
AcDbLine
 10
-210.49790451156372
 20
-45.912280898583688
 30
0.0
 11
-203.18562361298004
 21
-38.600000000000001
 31
0.0
  0
LINE
  5
164
100
AcDbEntity
  8
Tracks_v1
370
             140
390
0
  6
Continuous
 62
               7
100
AcDbLine
 10
-170.71448460477981
 20
-2.5019723049061171
 30
0.0
 11
-185.19999999999999
 21
-19.600000000000001
 31
0.0
  0
ARC
  5
165
100
AcDbEntity
  8
Tracks_v1
370
             140
390
0
  6
Continuous
 62
               7
100
AcDbCircle
 10
-567.06877827861706
 20
323.86877827862293
 30
0.0
 40
513.60935104047064
100
AcDbArc
 50
314.88843191362184
 51
318.03045923402362
  0
ARC
  5
166
100
AcDbEntity
  8
Tracks_v1
390
0
100
AcDbCircle
 10
-2.8197053444270979
 20
-167.03062050440244
 30
0.0
 40
229.84325847897298
100
AcDbArc
 50
133.3882688768133
 51
149.27513022415573
  0
LINE
  5
167
100
AcDbEntity
  8
Tracks_v1
390
0
100
AcDbLine
 10
-201.11238517190486
 20
-49.224770343809702
 30
0.0
 11
-199.71238517190486
 21
-50.033060720675174
 31
0.0
  0
LINE
  5
168
100
AcDbEntity
  8
Tracks
390
0
100
AcDbLine
 10
-176.79999999999529
 20
29.724158134740378
 30
0.0
 11
-162.80745304749729
 21
29.724158134740378
 31
0.0
  0
LINE
  5
169
100
AcDbEntity
  8
Tracks
390
0
100
AcDbLine
 10
-217.65318135477824
 20
22.0
 30
0.0
 11
-194.54493063992476
 21
27.574600558948493
 31
0.0
  0
LINE
  5
16A
100
AcDbEntity
  8
Tracks
390
0
100
AcDbLine
 10
-246.9931038769202
 20
15.800000000000001
 30
0.0
 11
-252.00000000000031
 21
13.94212602965116
 31
0.0
  0
LINE
  5
16B
100
AcDbEntity
  8
Tracks
390
0
100
AcDbLine
 10
-285.80000000000001
 20
18.800000000000001
 30
0.0
 11
-266.79999999999893
 21
14.829850746268425
 31
0.0
  0
ARC
  5
16C
100
AcDbEntity
  8
Tracks
390
0
100
AcDbCircle
 10
-257.05552802891873
 20
53.472638249663689
 30
0.0
 40
39.852474954859865
100
AcDbArc
 50
255.84690938941529
 51
277.28795367161285
  0
LINE
  5
16D
100
AcDbEntity
  8
Tracks
390
0
100
AcDbLine
 10
-289.80000000000001
 20
31.0
 30
0.0
 11
-290.19999999999999
 21
29.199999999999999
 31
0.0
  0
LINE
  5
16E
100
AcDbEntity
  8
Tracks
390
0
100
AcDbLine
 10
-290.60000000000002
 20
27.199999999999999
 30
0.0
 11
-291.0
 21
25.0
 31
0.0
  0
LINE
  5
16F
100
AcDbEntity
  8
Tracks
390
0
100
AcDbLine
 10
-285.80000000000001
 20
20.0
 30
0.0
 11
-286.19999999999999
 21
17.600000000000001
 31
0.0
  0
LINE
  5
170
100
AcDbEntity
  8
Tracks
390
0
100
AcDbLine
 10
-212.19999999999999
 20
15.800000000000001
 30
0.0
 11
-212.64140008964222
 21
13.800000000000001
 31
0.0
  0
ARC
  5
171
100
AcDbEntity
  8
Tracks
390
0
100
AcDbCircle
 10
-208.08482492845445
 20
44.932921633887688
 30
0.0
 40
26.474087714409727
100
AcDbArc
 50
267.58580026186684
 51
287.78140895042566
  0
ARC
  5
172
100
AcDbEntity
  8
Tracks
390
0
100
AcDbCircle
 10
-251.33816036799618
 20
48.613091610976326
 30
0.0
 40
30.16046025159531
100
AcDbArc
 50
260.93879795475169
 51
272.54293594373348
  0
ARC
  5
173
100
AcDbEntity
  8
Tracks
390
0
100
AcDbCircle
 10
-177.5
 20
-38.815587348218074
 30
0.0
 40
68.543319958028917
100
AcDbArc
 50
89.414855555860399
 51
104.39905079597247
  0
CIRCLE
  5
174
102
{ACAD_REACTORS
330
175
102
}
100
AcDbEntity
  8
Infrastructure
390
0
 62
              45
100
AcDbCircle
 10
-194.78024027152156
 20
16.119580058998093
 30
0.0
 40
2.6000000000000001
  0
HATCH
  5
175
100
AcDbEntity
  8
Infrastructure
370
               0
390
0
  6
Continuous
 62
              47
100
AcDbHatch
 10
0.0
 20
0.0
 30
0.0
210
0.0
220
0.0
230
1.0
  2
SOLID
 70
               1
 71
               1
 91
        1
 92
        1
 93
        1
 72
               2
 10
-194.78024027152156
 20
16.119580058998093
 40
2.6000000000000001
 50
0.0
 51
360.0
 73
               0
 97
        1
330
174
 75
               0
 76
               1
 98
        1
 10
0.0
 20
0.0
  0
CIRCLE
  5
176
102
{ACAD_REACTORS
330
177
102
}
100
AcDbEntity
  8
Infrastructure
370
              18
390
0
 62
              47
100
AcDbCircle
 10
27.0
 20
8.5
 30
0.0
 40
4.0311288741492746
  0
HATCH
  5
177
100
AcDbEntity
  8
Infrastructure
370
               0
390
0
  6
Continuous
 62
              43
100
AcDbHatch
 10
0.0
 20
0.0
 30
0.0
210
0.0
220
0.0
230
1.0
  2
SOLID
 70
               1
 71
               1
 91
        1
 92
        1
 93
        1
 72
               2
 10
27.0
 20
8.5
 40
4.0311288741492746
 50
0.0
 51
360.0
 73
               0
 97
        1
330
176
 75
               0
 76
               1
 98
        1
 10
0.0
 20
0.0
  0
CIRCLE
  5
178
102
{ACAD_REACTORS
330
179
102
}
100
AcDbEntity
  8
Infrastructure
370
              18
390
0
 62
              47
100
AcDbCircle
 10
35.0
 20
8.5
 30
0.0
 40
3.8999999999999999
  0
HATCH
  5
179
100
AcDbEntity
  8
Infrastructure
370
               0
390
0
  6
Continuous
 62
              43
100
AcDbHatch
 10
0.0
 20
0.0
 30
0.0
210
0.0
220
0.0
230
1.0
  2
SOLID
 70
               1
 71
               1
 91
        1
 92
        1
 93
        1
 72
               2
 10
35.0
 20
8.5
 40
3.8999999999999999
 50
0.0
 51
360.0
 73
               0
 97
        1
330
178
 75
               0
 76
               1
 98
        1
 10
0.0
 20
0.0
  0
POLYLINE
  5
17A
100
AcDbEntity
  8
Infrastructure
370
              35
390
0
  6
Continuous
 62
              45
100
AcDb2dPolyline
 66
               1
 10
0.0
 20
0.0
 30
0.0
 75
               5
  0
VERTEX
  5
17B
100
AcDbEntity
  8
Infrastructure
370
              35
390
0
  6
Continuous
 62
              45
100
AcDbVertex
100
AcDb2dVertex
 10
0.6
 20
35.799999999999997
 30
0.0
  0
VERTEX
  5
17C
100
AcDbEntity
  8
Infrastructure
370
              35
390
0
  6
Continuous
 62
              45
100
AcDbVertex
100
AcDb2dVertex
 10
4.0
 20
35.799999999999997
 30
0.0
  0
VERTEX
  5
17D
100
AcDbEntity
  8
Infrastructure
370
              35
390
0
  6
Continuous
 62
              45
100
AcDbVertex
100
AcDb2dVertex
 10
12.199999999999999
 20
34.799999999999997
 30
0.0
  0
VERTEX
  5
17E
100
AcDbEntity
  8
Infrastructure
370
              35
390
0
  6
Continuous
 62
              45
100
AcDbVertex
100
AcDb2dVertex
 10
27.399999999999999
 20
31.800000000000001
 30
0.0
  0
VERTEX
  5
17F
100
AcDbEntity
  8
Infrastructure
370
              35
390
0
  6
Continuous
 62
              45
100
AcDbVertex
100
AcDb2dVertex
 10
26.0
 20
25.199999999999999
 30
0.0
  0
SEQEND
  5
180
100
AcDbEntity
  8
Infrastructure
370
              35
390
0
  6
Continuous
 62
              45
  0
LINE
  5
182
100
AcDbEntity
  8
Infrastructure
370
              35
390
0
  6
Continuous
 62
              45
100
AcDbLine
 10
0.6
 20
31.0
 30
0.0
 11
0.6
 21
26.600000000000001
 31
0.0
  0
POLYLINE
  5
183
102
{ACAD_REACTORS
330
18A
102
}
100
AcDbEntity
  8
Infrastructure
390
0
100
AcDb2dPolyline
 66
               1
 10
0.0
 20
0.0
 30
0.0
 70
               1
 75
               5
  0
VERTEX
  5
184
100
AcDbEntity
  8
Infrastructure
390
0
100
AcDbVertex
100
AcDb2dVertex
 10
-206.59999999999999
 20
16.600000000000001
 30
0.0
  0
VERTEX
  5
185
100
AcDbEntity
  8
Infrastructure
390
0
100
AcDbVertex
100
AcDb2dVertex
 10
-203.40000000000001
 20
16.600000000000001
 30
0.0
  0
VERTEX
  5
186
100
AcDbEntity
  8
Infrastructure
390
0
100
AcDbVertex
100
AcDb2dVertex
 10
-203.40000000000001
 20
13.399999999999991
 30
0.0
  0
VERTEX
  5
187
100
AcDbEntity
  8
Infrastructure
390
0
100
AcDbVertex
100
AcDb2dVertex
 10
-206.59999999999999
 20
13.399999999999991
 30
0.0
  0
SEQEND
  5
188
100
AcDbEntity
  8
Infrastructure
390
0
  0
HATCH
  5
18A
100
AcDbEntity
  8
Infrastructure
370
               0
390
0
  6
Continuous
 62
              31
100
AcDbHatch
 10
0.0
 20
0.0
 30
0.0
210
0.0
220
0.0
230
1.0
  2
SOLID
 70
               1
 71
               1
 91
        1
 92
        1
 93
        4
 72
               1
 10
-206.59999999999999
 20
16.600000000000001
 11
-203.40000000000001
 21
16.600000000000001
 72
               1
 10
-203.40000000000001
 20
16.600000000000001
 11
-203.40000000000001
 21
13.399999999999991
 72
               1
 10
-203.40000000000001
 20
13.399999999999991
 11
-206.59999999999999
 21
13.399999999999991
 72
               1
 10
-206.59999999999999
 20
13.399999999999991
 11
-206.59999999999999
 21
16.600000000000001
 97
        1
330
183
 75
               0
 76
               1
 98
        1
 10
0.0
 20
0.0
  0
POLYLINE
  5
18B
102
{ACAD_REACTORS
330
192
102
}
100
AcDbEntity
  8
Infrastructure
370
              18
390
0
 62
              47
100
AcDb2dPolyline
 66
               1
 10
0.0
 20
0.0
 30
0.0
 70
               1
 75
               5
  0
VERTEX
  5
18C
100
AcDbEntity
  8
Infrastructure
370
              18
390
0
 62
              47
100
AcDbVertex
100
AcDb2dVertex
 10
-192.40000000000001
 20
19.600000000000001
 30
0.0
  0
VERTEX
  5
18D
100
AcDbEntity
  8
Infrastructure
370
              18
390
0
 62
              47
100
AcDbVertex
100
AcDb2dVertex
 10
-185.40000000000001
 20
21.600000000000001
 30
0.0
  0
VERTEX
  5
18E
100
AcDbEntity
  8
Infrastructure
370
              18
390
0
 62
              47
100
AcDbVertex
100
AcDb2dVertex
 10
-184.03396226415094
 20
16.818867924528298
 30
0.0
  0
VERTEX
  5
18F
100
AcDbEntity
  8
Infrastructure
370
              18
390
0
 62
              47
100
AcDbVertex
100
AcDb2dVertex
 10
-191.03396226415094
 20
14.8188679245283
 30
0.0
  0
SEQEND
  5
190
100
AcDbEntity
  8
Infrastructure
370
              18
390
0
 62
              47
  0
HATCH
  5
192
100
AcDbEntity
  8
Infrastructure
370
               0
390
0
  6
Continuous
 62
              31
100
AcDbHatch
 10
0.0
 20
0.0
 30
0.0
210
0.0
220
0.0
230
1.0
  2
SOLID
 70
               1
 71
               1
 91
        1
 92
        1
 93
        4
 72
               1
 10
-192.40000000000001
 20
19.600000000000001
 11
-185.40000000000001
 21
21.600000000000001
 72
               1
 10
-185.40000000000001
 20
21.600000000000001
 11
-184.03396226415094
 21
16.818867924528298
 72
               1
 10
-184.03396226415094
 20
16.818867924528298
 11
-191.03396226415094
 21
14.8188679245283
 72
               1
 10
-191.03396226415094
 20
14.8188679245283
 11
-192.40000000000001
 21
19.600000000000001
 97
        1
330
18B
 75
               0
 76
               1
 98
        1
 10
0.0
 20
0.0
  0
POLYLINE
  5
193
102
{ACAD_REACTORS
330
19A
102
}
100
AcDbEntity
  8
Infrastructure
390
0
100
AcDb2dPolyline
 66
               1
 10
0.0
 20
0.0
 30
0.0
 70
               1
 75
               5
  0
VERTEX
  5
194
100
AcDbEntity
  8
Infrastructure
390
0
100
AcDbVertex
100
AcDb2dVertex
 10
-183.19999999999999
 20
23.0
 30
0.0
  0
VERTEX
  5
195
100
AcDbEntity
  8
Infrastructure
390
0
100
AcDbVertex
100
AcDb2dVertex
 10
-175.59999999999999
 20
25.0
 30
0.0
  0
VERTEX
  5
196
100
AcDbEntity
  8
Infrastructure
390
0
100
AcDbVertex
100
AcDb2dVertex
 10
-174.86315789473684
 20
22.200000000000003
 30
0.0
  0
VERTEX
  5
197
100
AcDbEntity
  8
Infrastructure
390
0
100
AcDbVertex
100
AcDb2dVertex
 10
-182.46315789473684
 20
20.200000000000003
 30
0.0
  0
SEQEND
  5
198
100
AcDbEntity
  8
Infrastructure
390
0
  0
HATCH
  5
19A
100
AcDbEntity
  8
Infrastructure
370
               0
390
0
  6
Continuous
 62
              31
100
AcDbHatch
 10
0.0
 20
0.0
 30
0.0
210
0.0
220
0.0
230
1.0
  2
SOLID
 70
               1
 71
               1
 91
        1
 92
        1
 93
        4
 72
               1
 10
-183.19999999999999
 20
23.0
 11
-175.59999999999999
 21
25.0
 72
               1
 10
-175.59999999999999
 20
25.0
 11
-174.86315789473684
 21
22.200000000000003
 72
               1
 10
-174.86315789473684
 20
22.200000000000003
 11
-182.46315789473684
 21
20.200000000000003
 72
               1
 10
-182.46315789473684
 20
20.200000000000003
 11
-183.19999999999999
 21
23.0
 97
        1
330
193
 75
               0
 76
               1
 98
        1
 10
0.0
 20
0.0
  0
POLYLINE
  5
19B
102
{ACAD_REACTORS
330
1A2
102
}
100
AcDbEntity
  8
Infrastructure
370
              13
390
0
 62
              47
100
AcDb2dPolyline
 66
               1
 10
0.0
 20
0.0
 30
0.0
 70
               1
 75
               5
  0
VERTEX
  5
19C
100
AcDbEntity
  8
Infrastructure
370
              13
390
0
 62
              47
100
AcDbVertex
100
AcDb2dVertex
 10
-219.42393955004323
 20
35.799999999999997
 30
0.0
  0
VERTEX
  5
19D
100
AcDbEntity
  8
Infrastructure
370
              13
390
0
 62
              47
100
AcDbVertex
100
AcDb2dVertex
 10
-201.22393955004321
 20
35.799999999999997
 30
0.0
  0
VERTEX
  5
19E
100
AcDbEntity
  8
Infrastructure
370
              13
390
0
 62
              47
100
AcDbVertex
100
AcDb2dVertex
 10
-201.22393955004321
 20
28.399999999999999
 30
0.0
  0
VERTEX
  5
19F
100
AcDbEntity
  8
Infrastructure
370
              13
390
0
 62
              47
100
AcDbVertex
100
AcDb2dVertex
 10
-219.42393955004323
 20
28.399999999999999
 30
0.0
  0
SEQEND
  5
1A0
100
AcDbEntity
  8
Infrastructure
370
              13
390
0
 62
              47
  0
HATCH
  5
1A2
100
AcDbEntity
  8
Infrastructure
370
               0
390
0
  6
Continuous
 62
              31
100
AcDbHatch
 10
0.0
 20
0.0
 30
0.0
210
0.0
220
0.0
230
1.0
  2
SOLID
 70
               1
 71
               1
 91
        1
 92
        1
 93
        4
 72
               1
 10
-219.42393955004323
 20
35.799999999999997
 11
-201.22393955004321
 21
35.799999999999997
 72
               1
 10
-201.22393955004321
 20
35.799999999999997
 11
-201.22393955004321
 21
28.399999999999999
 72
               1
 10
-201.22393955004321
 20
28.399999999999999
 11
-219.42393955004323
 21
28.399999999999999
 72
               1
 10
-219.42393955004323
 20
28.399999999999999
 11
-219.42393955004323
 21
35.799999999999997
 97
        1
330
19B
 75
               0
 76
               1
 98
        1
 10
0.0
 20
0.0
  0
INSERT
  5
1A3
100
AcDbEntity
  8
Signals
390
0
 62
               7
100
AcDbBlockReference
  2
Group
 10
0.0
 20
0.0
 30
0.0
  0
INSERT
  5
1A4
100
AcDbEntity
  8
Signals
390
0
 62
               7
100
AcDbBlockReference
  2
Group-1
 10
0.0
 20
0.0
 30
0.0
  0
INSERT
  5
1A5
100
AcDbEntity
  8
Signals
390
0
 62
               7
100
AcDbBlockReference
  2
Group-2
 10
0.0
 20
0.0
 30
0.0
  0
INSERT
  5
1A6
100
AcDbEntity
  8
Signals
390
0
 62
               7
100
AcDbBlockReference
  2
Group-3
 10
0.0
 20
0.0
 30
0.0
  0
MTEXT
  5
1A7
100
AcDbEntity
  8
Lables-Infrastructure
390
0
100
AcDbMText
 10
246.93416666666667
 20
66.655850694444453
 30
0.0
 40
3.0316840277777772
 41
0.0
 71
               1
 72
               1
  1
{\C250;\lStacja}
  7
Arial
 73
               1
 44
0.9673603504928806
  0
MTEXT
  5
1A8
100
AcDbEntity
  8
Lables-Infrastructure
390
0
100
AcDbMText
 10
6.7151671780480298
 20
59.121577833991239
 30
0.0
 40
3.0316840277777772
 41
0.0
 71
               1
 72
               1
  1
{\C250;\lNastawnia}
  7
Arial
 73
               1
 44
0.9673603504928806
  0
MTEXT
  5
1A9
100
AcDbEntity
  8
Lables-Infrastructure
390
0
100
AcDbMText
 10
106.0
 20
68.221684027777783
 30
0.0
 40
3.0316840277777772
 41
0.0
 71
               1
 72
               1
  1
{\C250;\lBiuro}
  7
Arial
 73
               1
 44
0.9673603504928806
  0
MTEXT
  5
1AA
100
AcDbEntity
  8
Lables-Infrastructure
390
0
100
AcDbMText
 10
-91.106088642078362
 20
30.655850694444446
 30
0.0
 40
3.0316840277777772
 41
0.0
 71
               1
 72
               1
  1
{\C250;\lMagazyn}
  7
Arial
 73
               1
 44
0.9673603504928806
  0
MTEXT
  5
1AB
100
AcDbEntity
  8
Lables-Infrastructure
390
0
100
AcDbMText
 10
-296.0
 20
10.769083412722299
 30
0.0
 40
3.0316840277777772
 41
0.0
 71
               1
 72
               1
  1
{\C250;\lLokomotywownia}
  7
Arial
 73
               1
 44
0.9673603504928806
  0
MTEXT
  5
1AC
100
AcDbEntity
  8
Lables-Infrastructure
390
0
100
AcDbMText
 10
-195.5
 20
10.721684027777778
 30
0.0
 40
3.0316840277777772
 41
0.0
 71
               1
 72
               1
  1
{\C250;\lOporz\U+0105dzanie\Pparowozów}
  7
Arial
 73
               1
 44
0.9673603504928806
  0
MTEXT
  5
1AD
100
AcDbEntity
  8
Lables-Infrastructure
390
0
100
AcDbMText
 10
152.5
 20
51.721684027777783
 30
0.0
 40
3.0316840277777772
 41
0.0
 71
               1
 72
               1
  1
{\C250;\lPeron 1}
  7
Arial
 73
               1
 44
0.9673603504928806
  0
MTEXT
  5
1AE
100
AcDbEntity
  8
Lables-Infrastructure
390
0
100
AcDbMText
 10
152.0
 20
34.221684027777776
 30
0.0
 40
3.0316840277777772
 41
0.0
 71
               1
 72
               1
  1
{\C250;\lPeron 2}
  7
Arial
 73
               1
 44
0.9673603504928806
  0
INSERT
  5
1AF
100
AcDbEntity
  8
Signals
390
0
 62
               7
100
AcDbBlockReference
  2
Group-4
 10
0.0
 20
0.0
 30
0.0
  0
MTEXT
  5
1B0
100
AcDbEntity
  8
Lables-Signals & Tracks
390
0
100
AcDbMText
 10
102.27948279874906
 20
47.404952801099256
 30
0.0
 40
2.5264033564814814
 41
0.0
 71
               1
 72
               1
  1
{\C5;\ltor 1}
  7
Arial (italic)
 73
               1
 44
0.9757721796276014
  0
MTEXT
  5
1B1
100
AcDbEntity
  8
Lables-Signals & Tracks
390
0
100
AcDbMText
 10
102.39977418252512
 20
41.751403356481482
 30
0.0
 40
2.5264033564814814
 41
0.0
 71
               1
 72
               1
  1
{\C5;\ltor 3}
  7
Arial (italic)
 73
               1
 44
0.9757721796276014
  0
MTEXT
  5
1B2
100
AcDbEntity
  8
Lables-Signals & Tracks
390
0
100
AcDbMText
 10
102.69815334789193
 20
30.131727523408141
 30
0.0
 40
2.5264033564814814
 41
0.0
 71
               1
 72
               1
  1
{\C5;\ltor 5}
  7
Arial (italic)
 73
               1
 44
0.9757721796276014
  0
MTEXT
  5
1B3
100
AcDbEntity
  8
Lables-Signals & Tracks
390
0
100
AcDbMText
 10
103.22940084087267
 20
20.55140335648148
 30
0.0
 40
2.5264033564814814
 41
0.0
 71
               1
 72
               1
  1
{\C5;\ltor 7}
  7
Arial (italic)
 73
               1
 44
0.9757721796276014
  0
MTEXT
  5
1B4
100
AcDbEntity
  8
Lables-Signals & Tracks
390
0
100
AcDbMText
 10
102.8
 20
11.35140335648148
 30
0.0
 40
2.5264033564814814
 41
0.0
 71
               1
 72
               1
  1
{\C5;\ltor 9}
  7
Arial (italic)
 73
               1
 44
0.9757721796276014
  0
MTEXT
  5
1B5
100
AcDbEntity
  8
Lables-Signals & Tracks
390
0
100
AcDbMText
 10
-12.653995383532529
 20
27.200753085044436
 30
0.0
 40
2.5264033564814814
 41
0.0
 71
               1
 72
               1
  1
{\C5;\ltor 91}
  7
Arial (italic)
 11
0.9832453547816185
 21
0.1822870601561426
 31
0.0
 73
               1
 44
0.9757721796276014
  0
MTEXT
  5
1B6
100
AcDbEntity
  8
Lables-Signals & Tracks
390
0
100
AcDbMText
 10
-12.366678999650826
 20
16.299343794364592
 30
0.0
 40
2.5264033564814814
 41
0.0
 71
               1
 72
               1
  1
{\C5;\ltor 92}
  7
Arial (italic)
 11
0.9832453547816185
 21
0.1822870601561429
 31
0.0
 73
               1
 44
0.9757721796276014
  0
MTEXT
  5
1B7
100
AcDbEntity
  8
Lables-Signals & Tracks
390
0
100
AcDbMText
 10
-12.30791025778257
 20
6.3703657884292468
 30
0.0
 40
2.5264033564814814
 41
0.0
 71
               1
 72
               1
  1
{\C5;\ltor 93}
  7
Arial (italic)
 11
0.9843653856652148
 21
0.1761385463326327
 31
0.0
 73
               1
 44
0.9757721796276014
  0
MTEXT
  5
1B8
100
AcDbEntity
  8
Lables
390
0
100
AcDbMText
 10
-11.936132035270811
 20
40.849994065801667
 30
0.0
 40
2.5264033564814814
 41
0.0
 71
               1
 72
               1
  1
{\C5;\ltor 51}
  7
Arial (italic)
 73
               1
 44
0.9757721796276014
  0
MTEXT
  5
1B9
100
AcDbEntity
  8
Lables
390
0
100
AcDbMText
 10
-187.80000000000001
 20
58.151403356481481
 30
0.0
 40
2.5264033564814814
 41
0.0
 71
               1
 72
               1
  1
{\C5;\ltor 101}
  7
Arial (italic)
 73
               1
 44
0.9757721796276014
  0
MTEXT
  5
1BA
100
AcDbEntity
  8
Lables
390
0
100
AcDbMText
 10
-187.80000000000001
 20
54.059181134259255
 30
0.0
 40
2.5264033564814814
 41
0.0
 71
               1
 72
               1
  1
{\C5;\ltor 102}
  7
Arial (italic)
 73
               1
 44
0.9757721796276014
  0
MTEXT
  5
1BB
100
AcDbEntity
  8
Lables
390
0
100
AcDbMText
 10
-187.40000000000001
 20
44.751403356481482
 30
0.0
 40
2.5264033564814814
 41
0.0
 71
               1
 72
               1
  1
{\C5;\ltor 103}
  7
Arial (italic)
 73
               1
 44
0.9757721796276014
  0
MTEXT
  5
1BC
100
AcDbEntity
  8
Lables
390
0
100
AcDbMText
 10
-187.56064833385335
 20
36.148161687214902
 30
0.0
 40
2.5264033564814814
 41
0.0
 71
               1
 72
               1
  1
{\C5;\ltor 104}
  7
Arial
 73
               1
 44
0.9673603504928806
  0
MTEXT
  5
1BD
100
AcDbEntity
  8
Lables
390
0
100
AcDbMText
 10
48.468384174806275
 20
46.363667413705954
 30
0.0
 40
2.5264033564814814
 41
0.0
 71
               1
 72
               1
  1
{\C5;\lF}
  7
Arial
 11
0.0
 21
1.0
 31
0.0
 73
               1
 44
0.9673603504928806
  0
MTEXT
  5
1BE
100
AcDbEntity
  8
Lables
390
0
100
AcDbMText
 10
60.014164540901128
 20
39.668586170220365
 30
0.0
 40
2.5264033564814814
 41
0.0
 71
               1
 72
               1
  1
{\C5;\lE}
  7
Arial
 11
0.0
 21
1.0
 31
0.0
 73
               1
 44
0.9673603504928806
  0
MTEXT
  5
1BF
100
AcDbEntity
  8
Lables
390
0
100
AcDbMText
 10
66.693538062482133
 20
28.106540398162878
 30
0.0
 40
2.5264033564814814
 41
0.0
 71
               1
 72
               1
  1
{\C5;\lD}
  7
Arial
 11
0.0
 21
1.0
 31
0.0
 73
               1
 44
0.9673603504928806
  0
MTEXT
  5
1C0
100
AcDbEntity
  8
Lables
390
0
100
AcDbMText
 10
86.178054544021364
 20
18.655785829953505
 30
0.0
 40
2.5264033564814814
 41
0.0
 71
               1
 72
               1
  1
{\C5;\lC}
  7
Arial
 11
0.0
 21
1.0
 31
0.0
 73
               1
 44
0.9673603504928806
  0
MTEXT
  5
1C1
100
AcDbEntity
  8
Lables
390
0
100
AcDbMText
 10
95.704829266330179
 20
10.002348083550265
 30
0.0
 40
2.5264033564814814
 41
0.0
 71
               1
 72
               1
  1
{\C5;\lB}
  7
Arial
 11
0.0
 21
1.0
 31
0.0
 73
               1
 44
0.9673603504928806
  0
MTEXT
  5
1C2
100
AcDbEntity
  8
Lables
390
0
100
AcDbMText
 10
59.705016646833734
 20
42.055304109810805
 30
0.0
 40
1.0105613425925926
 41
0.0
 71
               1
 72
               1
  1
{\C5;\l2}
  7
Arial
 11
0.0
 21
1.0
 31
0.0
 73
               1
 44
0.9673603504928809
  0
MTEXT
  5
1C3
100
AcDbEntity
  8
Lables
390
0
100
AcDbMText
 10
66.219772916377934
 20
30.618289461041758
 30
0.0
 40
1.0105613425925926
 41
0.0
 71
               1
 72
               1
  1
{\C5;\l2}
  7
Arial
 11
0.0
 21
1.0
 31
0.0
 73
               1
 44
0.9673603504928809
  0
MTEXT
  5
1C4
100
AcDbEntity
  8
Lables
390
0
100
AcDbMText
 10
85.656420384570026
 20
21.015382886418809
 30
0.0
 40
1.0105613425925926
 41
0.0
 71
               1
 72
               1
  1
{\C5;\l2}
  7
Arial
 11
0.0
 21
1.0
 31
0.0
 73
               1
 44
0.9673603504928809
  0
MTEXT
  5
1C5
100
AcDbEntity
  8
Lables
390
0
100
AcDbMText
 10
95.18030955201661
 20
12.116780324623056
 30
0.0
 40
1.0105613425925926
 41
0.0
 71
               1
 72
               1
  1
{\C5;\l2}
  7
Arial
 11
0.0
 21
1.0
 31
0.0
 73
               1
 44
0.9673603504928809
  0
MTEXT
  5
1C6
100
AcDbEntity
  8
Lables
390
0
100
AcDbMText
 10
47.906301579808513
 20
48.350052679698386
 30
0.0
 40
1.0105613425925926
 41
0.0
 71
               1
 72
               1
  1
{\C5;\l1}
  7
Arial
 11
0.0
 21
1.0
 31
0.0
 73
               1
 44
0.9673603504928809
  0
MTEXT
  5
1C7
100
AcDbEntity
  8
Lables-Infrastructure
390
0
 62
              19
100
AcDbMText
 10
18.964317848866987
 20
51.520274737097964
 30
0.0
 40
3.0316840277777772
 41
0.0
 71
               1
 72
               1
  1
Pg
  7
Arial
 73
               1
 44
0.9673603504928806
  0
MTEXT
  5
1C8
100
AcDbEntity
  8
Lables
390
0
100
AcDbMText
 10
3.8456971472709456
 20
46.16232628525831
 30
0.0
 40
1.5158420138888886
 41
0.0
 71
               1
 72
               1
  1
{\C5;\l1}
  7
Arial
 73
               1
 44
0.9673603504928806
  0
MTEXT
  5
1C9
100
AcDbEntity
  8
Lables
390
0
100
AcDbMText
 10
29.311424286817736
 20
46.142296292982465
 30
0.0
 40
1.5158420138888886
 41
0.0
 71
               1
 72
               1
  1
{\C5;\l2}
  7
Arial
 73
               1
 44
0.9673603504928806
  0
MTEXT
  5
1CA
100
AcDbEntity
  8
Lables
390
0
100
AcDbMText
 10
44.71988003089664
 20
32.093780564351889
 30
0.0
 40
1.5158420138888886
 41
0.0
 71
               1
 72
               1
  1
{\C5;\l3}
  7
Arial
 73
               1
 44
0.9673603504928806
  0
MTEXT
  5
1CB
100
AcDbEntity
  8
Lables
390
0
100
AcDbMText
 10
44.600000000000001
 20
22.387993440253414
 30
0.0
 40
1.5158420138888886
 41
0.0
 71
               1
 72
               1
  1
{\C5;\l4}
  7
Arial
 73
               1
 44
0.9673603504928806
  0
MTEXT
  5
1CC
100
AcDbEntity
  8
Lables
390
0
100
AcDbMText
 10
65.488575713182257
 20
13.656539161159836
 30
0.0
 40
1.5158420138888886
 41
0.0
 71
               1
 72
               1
  1
{\C5;\l5}
  7
Arial
 73
               1
 44
0.9673603504928806
  0
MTEXT
  5
1CD
100
AcDbEntity
  8
Lables
390
0
100
AcDbMText
 10
69.131454279093575
 20
21.053720579800203
 30
0.0
 40
1.5158420138888886
 41
0.0
 71
               1
 72
               1
  1
{\C5;\l6}
  7
Arial
 73
               1
 44
0.9673603504928806
  0
MTEXT
  5
1CE
100
AcDbEntity
  8
Lables
390
0
100
AcDbMText
 10
86.200000000000003
 20
8.8108420138888892
 30
0.0
 40
1.5158420138888886
 41
0.0
 71
               1
 72
               1
  1
{\C5;\l7}
  7
Arial
 73
               1
 44
0.9673603504928806
  0
MTEXT
  5
1CF
100
AcDbEntity
  8
Lables
390
0
100
AcDbMText
 10
244.19999999999999
 20
20.610842013888888
 30
0.0
 40
1.5158420138888886
 41
0.0
 71
               1
 72
               1
  1
{\C5;\l8}
  7
Arial
 73
               1
 44
0.9673603504928806
  0
MTEXT
  5
1D0
100
AcDbEntity
  8
Lables
390
0
100
AcDbMText
 10
265.60000000000002
 20
14.810842013888887
 30
0.0
 40
1.5158420138888886
 41
0.0
 71
               1
 72
               1
  1
{\C5;\l9}
  7
Arial
 73
               1
 44
0.9673603504928806
  0
MTEXT
  5
1D1
100
AcDbEntity
  8
Lables
390
0
100
AcDbMText
 10
265.19999999999999
 20
41.810842013888887
 30
0.0
 40
1.5158420138888886
 41
0.0
 71
               1
 72
               1
  1
{\C5;\l10}
  7
Arial
 73
               1
 44
0.9673603504928806
  0
MTEXT
  5
1D2
100
AcDbEntity
  8
Lables
390
0
100
AcDbMText
 10
287.80000000000001
 20
24.010842013888887
 30
0.0
 40
1.5158420138888886
 41
0.0
 71
               1
 72
               1
  1
{\C5;\l11}
  7
Arial
 73
               1
 44
0.9673603504928806
  0
MTEXT
  5
1D3
100
AcDbEntity
  8
Lables
390
0
100
AcDbMText
 10
294.80000000000001
 20
42.01084201388889
 30
0.0
 40
1.5158420138888886
 41
0.0
 71
               1
 72
               1
  1
{\C5;\l12}
  7
Arial
 73
               1
 44
0.9673603504928806
  0
MTEXT
  5
1D4
100
AcDbEntity
  8
Lables
390
0
100
AcDbMText
 10
306.19999999999999
 20
11.010842013888889
 30
0.0
 40
1.5158420138888886
 41
0.0
 71
               1
 72
               1
  1
{\C5;\l13}
  7
Arial
 73
               1
 44
0.9673603504928806
  0
MTEXT
  5
1D5
100
AcDbEntity
  8
Tracks_v1
390
0
 62
               5
100
AcDbMText
 10
-178.66008997682752
 20
-3.5891579861111111
 30
0.0
 40
1.5158420138888886
 41
0.0
 71
               1
 72
               1
  1
100
  7
Arial
 73
               1
 44
0.9673603504928806
  0
MTEXT
  5
1D6
100
AcDbEntity
  8
Tracks_v1
390
0
 62
               5
100
AcDbMText
 10
-181.06854572090643
 20
-23.583520823391879
 30
0.0
 40
1.5158420138888886
 41
0.0
 71
               1
 72
               1
  1
101
  7
Arial
 73
               1
 44
0.9673603504928806
  0
MTEXT
  5
1D7
100
AcDbEntity
  8
Lables
390
0
100
AcDbMText
 10
-164.58545303403986
 20
33.227925347222225
 30
0.0
 40
1.5158420138888886
 41
0.0
 71
               1
 72
               1
  1
{\C5;\l102}
  7
Arial
 73
               1
 44
0.9673603504928806
  0
MTEXT
  5
1D8
100
AcDbEntity
  8
Lables
390
0
100
AcDbMText
 10
-148.59999999999999
 20
45.076569153435678
 30
0.0
 40
1.5158420138888886
 41
0.0
 71
               1
 72
               1
  1
{\C5;\l103}
  7
Arial
 73
               1
 44
0.9673603504928806
  0
MTEXT
  5
1D9
100
AcDbEntity
  8
Lables
390
0
100
AcDbMText
 10
-121.7671364302266
 20
44.526344211366876
 30
0.0
 40
1.5158420138888886
 41
0.0
 71
               1
 72
               1
  1
{\C5;\l104}
  7
Arial
 73
               1
 44
0.9673603504928806
  0
MTEXT
  5
1DA
100
AcDbEntity
  8
Lables
390
0
100
AcDbMText
 10
-87.230044988413766
 20
48.646524165021916
 30
0.0
 40
1.5158420138888886
 41
0.0
 71
               1
 72
               1
  1
{\C5;\l105}
  7
Arial
 73
               1
 44
0.9673603504928806
  0
MTEXT
  5
1DB
100
AcDbEntity
  8
Lables
390
0
100
AcDbMText
 10
-38.89013496524128
 20
49.01084201388889
 30
0.0
 40
1.5158420138888886
 41
0.0
 71
               1
 72
               1
  1
{\C5;\l106}
  7
Arial
 73
               1
 44
0.9673603504928806
  0
MTEXT
  5
1DC
100
AcDbEntity
  8
Lables
390
0
100
AcDbMText
 10
-9.4000000000000004
 20
46.810842013888887
 30
0.0
 40
1.5158420138888886
 41
0.0
 71
               1
 72
               1
  1
{\C5;\l107}
  7
Arial
 73
               1
 44
0.9673603504928806
  0
LINE
  5
1DD
100
AcDbEntity
  8
Tracks_v1
370
             140
390
0
  6
Continuous
 62
               7
100
AcDbLine
 10
-210.49790451156372
 20
-45.912280898583688
 30
0.0
 11
-203.18562361298004
 21
-38.600000000000001
 31
0.0
  0
INSERT
  5
1DE
100
AcDbEntity
  8
Tracks_v1
390
0
 62
               7
100
AcDbBlockReference
  2
Group-5
 10
0.0
 20
0.0
 30
0.0
  0
MTEXT
  5
1DF
100
AcDbEntity
  8
Tracks_v1
390
0
 62
               5
100
AcDbMText
 10
-207.13145832019546
 20
-43.681919149123978
 30
0.0
 40
2.5264033564814814
 41
0.0
 71
               1
 72
               1
  1
ToA
  7
Arial
 11
0.7445694406464901
 21
-0.6675450157520261
 31
0.0
 73
               1
 44
0.9673603504928806
  0
MTEXT
  5
1E0
100
AcDbEntity
  8
Tracks_v1
390
0
 62
               5
100
AcDbMText
 10
-199.36147821390972
 20
-38.082439786973033
 30
0.0
 40
2.5264033564814814
 41
0.0
 71
               1
 72
               1
  1
A
  7
Arial
 11
0.707106781186548
 21
-0.707106781186547
 31
0.0
 73
               1
 44
0.9673603504928806
  0
MTEXT
  5
1E1
100
AcDbEntity
  8
Tracks_v1
390
0
 62
               5
100
AcDbMText
 10
-197.54907615426691
 20
-39.001598251229517
 30
0.0
 40
1.0105613425925926
 41
0.0
 71
               1
 72
               1
  1
2
  7
Arial
 11
0.707106781186548
 21
-0.707106781186547
 31
0.0
 73
               1
 44
0.9673603504928809
  0
MTEXT
  5
1E2
100
AcDbEntity
  8
Lables
390
0
100
AcDbMText
 10
-199.76314311669029
 20
29.941773077652527
 30
0.0
 40
2.5264033564814814
 41
0.0
 71
               1
 72
               1
  1
{\C5;\ltor 105}
  7
Arial
 11
0.9612328960816304
 21
0.2757377730571593
 31
0.0
 73
               1
 44
0.9673603504928806
  0
MTEXT
  5
1E3
100
AcDbEntity
  8
Lables
390
0
100
AcDbMText
 10
-197.86493785538602
 20
24.120610276319148
 30
0.0
 40
2.5264033564814814
 41
0.0
 71
               1
 72
               1
  1
{\C5;\ltor 106}
  7
Arial
 11
0.9612328960816304
 21
0.2757377730571593
 31
0.0
 73
               1
 44
0.9673603504928806
  0
MTEXT
  5
1E4
100
AcDbEntity
  8
Lables
390
0
100
AcDbMText
 10
-280.3770929538955
 20
31.770758479506572
 30
0.0
 40
2.5264033564814814
 41
0.0
 71
               1
 72
               1
  1
{\C5;\ltor 110}
  7
Arial
 11
0.9780525287360273
 21
-0.2083584676298574
 31
0.0
 73
               1
 44
0.9673603504928806
  0
MTEXT
  5
1E5
100
AcDbEntity
  8
Lables
390
0
100
AcDbMText
 10
-281.51601611067827
 20
27.59470690463699
 30
0.0
 40
2.5264033564814814
 41
0.0
 71
               1
 72
               1
  1
{\C5;\ltor 111}
  7
Arial
 11
0.9780525287360273
 21
-0.2083584676298574
 31
0.0
 73
               1
 44
0.9673603504928806
  0
MTEXT
  5
1E6
100
AcDbEntity
  8
Lables
390
0
100
AcDbMText
 10
-284.17350347650472
 20
17.344398493593296
 30
0.0
 40
2.5264033564814814
 41
0.0
 71
               1
 72
               1
  1
{\C5;\ltor 112}
  7
Arial
 11
0.9780525287360273
 21
-0.2083584676298574
 31
0.0
 73
               1
 44
0.9673603504928806
  0
ENDSEC
  0
SECTION
  2
OBJECTS
  0
DICTIONARY
  5
19
100
AcDbDictionary
280
               0
281
               1
  3
ACAD_GROUP
350
1A
  3
ACAD_MLINESTYLE
350
1B
  3
ACAD_LAYOUT
350
1E
  3
ACAD_PLOTSETTINGS
350
22
  3
ACAD_PLOTSTYLENAME
350
1F
  3
ACAD_WIPEOUT_VARS
350
23
  0
DICTIONARY
  5
1A
102
{ACAD_REACTORS
330
19
102
}
100
AcDbDictionary
280
               0
281
               1
  0
DICTIONARY
  5
1B
102
{ACAD_REACTORS
330
19
102
}
100
AcDbDictionary
280
               0
281
               1
  3
Standard
350
1C
  0
MLINESTYLE
  5
1C
102
{ACAD_REACTORS
330
1B
102
}
100
AcDbMlineStyle
  2
Standard
 70
               0
  3

 62
               0
 51
90.0
 52
90.0
 71
               2
 49
0.5
 62
             256
  6
ByLayer
 49
-0.5
 62
             256
  6
ByLayer
  0
ACDBDICTIONARYWDFLT
  5
1F
102
{ACAD_REACTORS
330
19
102
}
100
AcDbDictionary
281
               1
  3
Normal
350
1D
100
AcDbDictionaryWithDefault
340
1D
  0
ACDBPLACEHOLDER
  5
1D
102
{ACAD_REACTORS
330
1F
102
}
  0
LAYOUT
  5
20
102
{ACAD_REACTORS
330
1E
102
}
100
AcDbPlotSettings
  1

  2

  4

  6

 40
0.0
 41
0.0
 42
0.0
 43
0.0
 44
0.0
 45
0.0
 46
0.0
 47
0.0
 48
0.0
 49
0.0
140
0.0
141
0.0
142
1.0
143
1.0
 70
            1024
 72
               0
 73
               0
 74
               0
  7

 75
               0
147
1.0
148
0.0
149
0.0
100
AcDbLayout
  1
Model
 70
               0
 71
               0
 10
0.0
 20
0.0
 11
0.0
 21
0.0
 12
0.0
 22
0.0
 32
0.0
 14
0.0
 24
0.0
 34
0.0
 15
0.0
 25
0.0
 35
0.0
146
0.0
 13
0.0
 23
0.0
 33
0.0
 16
0.0
 26
0.0
 36
0.0
 17
0.0
 27
0.0
 37
0.0
 76
               0
330
A
331
0
345
0
346
0
  0
LAYOUT
  5
21
102
{ACAD_REACTORS
330
1E
102
}
100
AcDbPlotSettings
  1

  2

  4

  6

 40
0.0
 41
0.0
 42
0.0
 43
0.0
 44
0.0
 45
0.0
 46
0.0
 47
0.0
 48
0.0
 49
0.0
140
0.0
141
0.0
142
1.0
143
1.0
 70
               0
 72
               0
 73
               0
 74
               0
  7

 75
               0
147
1.0
148
0.0
149
0.0
100
AcDbLayout
  1
Layout1
 70
               0
 71
               0
 10
0.0
 20
0.0
 11
0.0
 21
0.0
 12
0.0
 22
0.0
 32
0.0
 14
0.0
 24
0.0
 34
0.0
 15
0.0
 25
0.0
 35
0.0
146
0.0
 13
0.0
 23
0.0
 33
0.0
 16
0.0
 26
0.0
 36
0.0
 17
0.0
 27
0.0
 37
0.0
 76
               0
330
B
331
0
345
0
346
0
  0
DICTIONARY
  5
1E
102
{ACAD_REACTORS
330
19
102
}
100
AcDbDictionary
280
               0
281
               1
  3
Layout1
350
21
  3
Model
350
20
  0
DICTIONARY
  5
22
102
{ACAD_REACTORS
330
19
102
}
100
AcDbDictionary
280
               0
281
               1
  0
WIPEOUTVARIABLES
  5
23
100
AcDbWipeoutVariables
 70
               0
  0
ENDSEC
  0
EOF
